  0
SECTION
  2
HEADER
  9
$ACADVER
  1
AC1015
  9
$ACADMAINTVER
 70
     6
  9
$DWGCODEPAGE
  3
ANSI_932
  9
$INSBASE
 10
0.0
 20
0.0
 30
0.0
  9
$EXTMIN
 10
245.7402427154863
 20
-123.7539681580245
 30
0.0
  9
$EXTMAX
 10
1105.69922050314
 20
441.1440065802608
 30
0.0
  9
$LIMMIN
 10
0.0
 20
0.0
  9
$LIMMAX
 10
1189.0
 20
841.0
  9
$ORTHOMODE
 70
     0
  9
$REGENMODE
 70
     1
  9
$FILLMODE
 70
     1
  9
$QTEXTMODE
 70
     0
  9
$MIRRTEXT
 70
     1
  9
$LTSCALE
 40
1.0
  9
$ATTMODE
 70
     1
  9
$TEXTSIZE
 40
3.5
  9
$TRACEWID
 40
1.0
  9
$TEXTSTYLE
  7
Standard
  9
$CLAYER
  8
0
  9
$CELTYPE
  6
ByLayer
  9
$CECOLOR
 62
   256
  9
$CELTSCALE
 40
1.0
  9
$DISPSILH
 70
     0
  9
$DIMSCALE
 40
1.0
  9
$DIMASZ
 40
3.302
  9
$DIMEXO
 40
1.0
  9
$DIMDLI
 40
3.75
  9
$DIMRND
 40
0.0
  9
$DIMDLE
 40
0.0
  9
$DIMEXE
 40
1.0
  9
$DIMTP
 40
0.0
  9
$DIMTM
 40
0.0
  9
$DIMTXT
 40
3.5
  9
$DIMCEN
 40
2.5
  9
$DIMTSZ
 40
0.0
  9
$DIMTOL
 70
     0
  9
$DIMLIM
 70
     0
  9
$DIMTIH
 70
     1
  9
$DIMTOH
 70
     1
  9
$DIMSE1
 70
     0
  9
$DIMSE2
 70
     0
  9
$DIMTAD
 70
     1
  9
$DIMZIN
 70
     0
  9
$DIMBLK
  1

  9
$DIMASO
 70
     1
  9
$DIMSHO
 70
     1
  9
$DIMPOST
  1

  9
$DIMAPOST
  1

  9
$DIMALT
 70
     0
  9
$DIMALTD
 70
     3
  9
$DIMALTF
 40
0.0393700787401575
  9
$DIMLFAC
 40
1.0
  9
$DIMTOFL
 70
     1
  9
$DIMTVP
 40
0.0
  9
$DIMTIX
 70
     0
  9
$DIMSOXD
 70
     0
  9
$DIMSAH
 70
     0
  9
$DIMBLK1
  1

  9
$DIMBLK2
  1

  9
$DIMSTYLE
  2
ISO-25
  9
$DIMCLRD
 70
     0
  9
$DIMCLRE
 70
     0
  9
$DIMCLRT
 70
     0
  9
$DIMTFAC
 40
1.0
  9
$DIMGAP
 40
1.524
  9
$DIMJUST
 70
     0
  9
$DIMSD1
 70
     0
  9
$DIMSD2
 70
     0
  9
$DIMTOLJ
 70
     0
  9
$DIMTZIN
 70
     0
  9
$DIMALTZ
 70
     0
  9
$DIMALTTZ
 70
     0
  9
$DIMUPT
 70
     0
  9
$DIMDEC
 70
     2
  9
$DIMTDEC
 70
     2
  9
$DIMALTU
 70
     2
  9
$DIMALTTD
 70
     3
  9
$DIMTXSTY
  7
Standard
  9
$DIMAUNIT
 70
     0
  9
$DIMADEC
 70
     2
  9
$DIMALTRND
 40
0.0
  9
$DIMAZIN
 70
     0
  9
$DIMDSEP
 70
    44
  9
$DIMATFIT
 70
     3
  9
$DIMFRAC
 70
     0
  9
$DIMLDRBLK
  1

  9
$DIMLUNIT
 70
     2
  9
$DIMLWD
 70
    -2
  9
$DIMLWE
 70
    -2
  9
$DIMTMOVE
 70
     0
  9
$LUNITS
 70
     2
  9
$LUPREC
 70
     2
  9
$SKETCHINC
 40
1.0
  9
$FILLETRAD
 40
10.0
  9
$AUNITS
 70
     0
  9
$AUPREC
 70
     2
  9
$MENU
  1
.
  9
$ELEVATION
 40
0.0
  9
$PELEVATION
 40
0.0
  9
$THICKNESS
 40
0.0
  9
$LIMCHECK
 70
     0
  9
$CHAMFERA
 40
0.0
  9
$CHAMFERB
 40
0.0
  9
$CHAMFERC
 40
0.0
  9
$CHAMFERD
 40
0.0
  9
$SKPOLY
 70
     0
  9
$TDCREATE
 40
2458682.539137454
  9
$TDUCREATE
 40
2458682.164137454
  9
$TDUPDATE
 40
2458737.563669907
  9
$TDUUPDATE
 40
2458737.188669907
  9
$TDINDWG
 40
0.0038512963
  9
$TDUSRTIMER
 40
0.0001499421
  9
$USRTIMER
 70
     1
  9
$ANGBASE
 50
0.0
  9
$ANGDIR
 70
     0
  9
$PDMODE
 70
     0
  9
$PDSIZE
 40
-1.0
  9
$PLINEWID
 40
0.0
  9
$SPLFRAME
 70
     0
  9
$SPLINETYPE
 70
     6
  9
$SPLINESEGS
 70
     8
  9
$HANDSEED
  5
90D
  9
$SURFTAB1
 70
     6
  9
$SURFTAB2
 70
     6
  9
$SURFTYPE
 70
     6
  9
$SURFU
 70
     6
  9
$SURFV
 70
     6
  9
$UCSBASE
  2

  9
$UCSNAME
  2

  9
$UCSORG
 10
0.0
 20
0.0
 30
0.0
  9
$UCSXDIR
 10
1.0
 20
0.0
 30
0.0
  9
$UCSYDIR
 10
0.0
 20
1.0
 30
0.0
  9
$UCSORTHOREF
  2

  9
$UCSORTHOVIEW
 70
     1
  9
$UCSORGTOP
 10
0.0
 20
0.0
 30
0.0
  9
$UCSORGBOTTOM
 10
0.0
 20
0.0
 30
0.0
  9
$UCSORGLEFT
 10
0.0
 20
0.0
 30
0.0
  9
$UCSORGRIGHT
 10
0.0
 20
0.0
 30
0.0
  9
$UCSORGFRONT
 10
0.0
 20
0.0
 30
0.0
  9
$UCSORGBACK
 10
0.0
 20
0.0
 30
0.0
  9
$PUCSBASE
  2

  9
$PUCSNAME
  2

  9
$PUCSORG
 10
0.0
 20
0.0
 30
0.0
  9
$PUCSXDIR
 10
1.0
 20
0.0
 30
0.0
  9
$PUCSYDIR
 10
0.0
 20
1.0
 30
0.0
  9
$PUCSORTHOREF
  2

  9
$PUCSORTHOVIEW
 70
     0
  9
$PUCSORGTOP
 10
0.0
 20
0.0
 30
0.0
  9
$PUCSORGBOTTOM
 10
0.0
 20
0.0
 30
0.0
  9
$PUCSORGLEFT
 10
0.0
 20
0.0
 30
0.0
  9
$PUCSORGRIGHT
 10
0.0
 20
0.0
 30
0.0
  9
$PUCSORGFRONT
 10
0.0
 20
0.0
 30
0.0
  9
$PUCSORGBACK
 10
0.0
 20
0.0
 30
0.0
  9
$USERI1
 70
     0
  9
$USERI2
 70
     0
  9
$USERI3
 70
     0
  9
$USERI4
 70
     0
  9
$USERI5
 70
     0
  9
$USERR1
 40
0.0
  9
$USERR2
 40
0.0
  9
$USERR3
 40
0.0
  9
$USERR4
 40
0.0
  9
$USERR5
 40
0.0
  9
$WORLDVIEW
 70
     1
  9
$SHADEDGE
 70
     3
  9
$SHADEDIF
 70
    70
  9
$TILEMODE
 70
     1
  9
$MAXACTVP
 70
    64
  9
$PINSBASE
 10
0.0
 20
0.0
 30
0.0
  9
$PLIMCHECK
 70
     0
  9
$PEXTMIN
 10
1.000000000000000E+20
 20
1.000000000000000E+20
 30
1.000000000000000E+20
  9
$PEXTMAX
 10
-1.000000000000000E+20
 20
-1.000000000000000E+20
 30
-1.000000000000000E+20
  9
$PLIMMIN
 10
0.0
 20
0.0
  9
$PLIMMAX
 10
0.0
 20
0.0
  9
$UNITMODE
 70
     0
  9
$VISRETAIN
 70
     1
  9
$PLINEGEN
 70
     0
  9
$PSLTSCALE
 70
     1
  9
$TREEDEPTH
 70
  3020
  9
$CMLSTYLE
  2
Standard
  9
$CMLJUST
 70
     0
  9
$CMLSCALE
 40
20.0
  9
$PROXYGRAPHICS
 70
     1
  9
$MEASUREMENT
 70
     1
  9
$CELWEIGHT
370
    -1
  9
$ENDCAPS
280
     0
  9
$JOINSTYLE
280
     0
  9
$LWDISPLAY
290
     1
  9
$INSUNITS
 70
     4
  9
$HYPERLINKBASE
  1

  9
$STYLESHEET
  1

  9
$XEDIT
290
     1
  9
$CEPSNTYPE
380
     0
  9
$PSTYLEMODE
290
     1
  9
$FINGERPRINTGUID
  2
{622E7696-5225-434D-B8B4-100EF819DE16}
  9
$VERSIONGUID
  2
{FAEB1C32-E019-11D5-929B-00C0DF256EC4}
  9
$EXTNAMES
290
     1
  9
$PSVPSCALE
 40
0.0
  9
$OLESTARTUP
290
     0
  0
ENDSEC
  0
SECTION
  2
CLASSES
  0
CLASS
  1
ACDBDICTIONARYWDFLT
  2
AcDbDictionaryWithDefault
  3
ObjectDBX Classes
 90
        0
280
     0
281
     0
  0
CLASS
  1
VISUALSTYLE
  2
AcDbVisualStyle
  3
ObjectDBX Classes
 90
     4095
280
     0
281
     0
  0
CLASS
  1
MATERIAL
  2
AcDbMaterial
  3
ObjectDBX Classes
 90
     1153
280
     0
281
     0
  0
CLASS
  1
SCALE
  2
AcDbScale
  3
ObjectDBX Classes
 90
     1153
280
     0
281
     0
  0
CLASS
  1
TABLESTYLE
  2
AcDbTableStyle
  3
ObjectDBX Classes
 90
     4095
280
     0
281
     0
  0
CLASS
  1
MLEADERSTYLE
  2
AcDbMLeaderStyle
  3
ACDB_MLEADERSTYLE_CLASS
 90
     4095
280
     0
281
     0
  0
CLASS
  1
SUN
  2
AcDbSun
  3
SCENEOE
 90
     1153
280
     0
281
     0
  0
CLASS
  1
ACDBPLACEHOLDER
  2
AcDbPlaceHolder
  3
ObjectDBX Classes
 90
        0
280
     0
281
     0
  0
CLASS
  1
LAYOUT
  2
AcDbLayout
  3
ObjectDBX Classes
 90
        0
280
     0
281
     0
  0
CLASS
  1
SORTENTSTABLE
  2
AcDbSortentsTable
  3
ObjectDBX Classes
 90
        0
280
     0
281
     0
  0
CLASS
  1
DICTIONARYVAR
  2
AcDbDictionaryVar
  3
ObjectDBX Classes
 90
        0
280
     0
281
     0
  0
ENDSEC
  0
SECTION
  2
TABLES
  0
TABLE
  2
VPORT
  5
8
330
0
100
AcDbSymbolTable
 70
     1
  0
VPORT
  5
29
330
8
100
AcDbSymbolTableRecord
100
AcDbViewportTableRecord
  2
*Active
 70
     0
 10
0.0
 20
0.0
 11
1.0
 21
1.0
 12
675.7197316093132
 22
158.6950192111182
 13
0.0
 23
0.0
 14
10.0
 24
10.0
 15
10.0
 25
10.0
 16
0.0
 26
0.0
 36
1.0
 17
0.0
 27
0.0
 37
0.0
 40
576.1959342330509
 41
1.940740740740741
 42
50.0
 43
0.0
 44
0.0
 50
0.0
 51
0.0
 71
    16
 72
  2000
 73
     1
 74
     3
 75
     0
 76
     0
 77
     0
 78
     0
281
     0
 65
     1
110
0.0
120
0.0
130
0.0
111
1.0
121
0.0
131
0.0
112
0.0
122
1.0
132
0.0
 79
     1
146
0.0
  0
ENDTAB
  0
TABLE
  2
LTYPE
  5
5
330
0
100
AcDbSymbolTable
 70
     6
  0
LTYPE
  5
14
330
5
100
AcDbSymbolTableRecord
100
AcDbLinetypeTableRecord
  2
ByBlock
 70
     0
  3

 72
    65
 73
     0
 40
0.0
  0
LTYPE
  5
15
330
5
100
AcDbSymbolTableRecord
100
AcDbLinetypeTableRecord
  2
ByLayer
 70
     0
  3

 72
    65
 73
     0
 40
0.0
  0
LTYPE
  5
16
330
5
100
AcDbSymbolTableRecord
100
AcDbLinetypeTableRecord
  2
Continuous
 70
     0
  3
Solid line
 72
    65
 73
     0
 40
0.0
  0
LTYPE
  5
6E
330
5
100
AcDbSymbolTableRecord
100
AcDbLinetypeTableRecord
  2
HIDDEN
 70
     0
  3
Hidden __ __ __ __ __ __ __ __ __ __ __ __ __ __
 72
    65
 73
     2
 40
1.905
 49
1.27
 74
     0
 49
-0.635
 74
     0
  0
LTYPE
  5
6F
330
5
100
AcDbSymbolTableRecord
100
AcDbLinetypeTableRecord
  2
PHANTOM
 70
     0
  3
Phantom ______  __  __  ______  __  __  ______
 72
    65
 73
     6
 40
12.7
 49
6.35
 74
     0
 49
-1.27
 74
     0
 49
1.27
 74
     0
 49
-1.27
 74
     0
 49
1.27
 74
     0
 49
-1.27
 74
     0
  0
LTYPE
  5
70
330
5
100
AcDbSymbolTableRecord
100
AcDbLinetypeTableRecord
  2
CENTER
 70
     0
  3
Center ____ _ ____ _ ____ _ ____ _ ____ _ ____
 72
    65
 73
     4
 40
10.16
 49
6.35
 74
     0
 49
-1.27
 74
     0
 49
1.27
 74
     0
 49
-1.27
 74
     0
  0
LTYPE
  5
71
330
5
100
AcDbSymbolTableRecord
100
AcDbLinetypeTableRecord
  2
CENTERX2
 70
     0
  3
Center (2x) ________  __  ________  __  _____
 72
    65
 73
     4
 40
20.32
 49
12.7
 74
     0
 49
-2.54
 74
     0
 49
2.54
 74
     0
 49
-2.54
 74
     0
  0
LTYPE
  5
72
330
5
100
AcDbSymbolTableRecord
100
AcDbLinetypeTableRecord
  2
DOT2
 70
     0
  3
Dot (.5x) ........................................
 72
    65
 73
     2
 40
0.635
 49
0.0
 74
     0
 49
-0.635
 74
     0
  0
ENDTAB
  0
TABLE
  2
LAYER
  5
2
102
{ACAD_XDICTIONARY
360
308
102
}
330
0
100
AcDbSymbolTable
 70
     3
  0
LAYER
  5
10
330
2
100
AcDbSymbolTableRecord
100
AcDbLayerTableRecord
  2
0
 70
     0
 62
     7
  6
Continuous
370
    -3
390
F
  0
LAYER
  5
73
330
2
100
AcDbSymbolTableRecord
100
AcDbLayerTableRecord
  2
FORMAT
 70
     0
 62
     7
  6
Continuous
370
    -3
390
F
  0
LAYER
  5
2E8
102
{ACAD_XDICTIONARY
360
2E9
102
}
330
2
100
AcDbSymbolTableRecord
100
AcDbLayerTableRecord
  2
寸法線
 70
     0
 62
     7
  6
Continuous
370
    -3
390
F
  0
ENDTAB
  0
TABLE
  2
STYLE
  5
3
330
0
100
AcDbSymbolTable
 70
     3
  0
STYLE
  5
11
330
3
100
AcDbSymbolTableRecord
100
AcDbTextStyleTableRecord
  2
Standard
 70
     0
 40
0.0
 41
1.0
 50
0.0
 71
     0
 42
3.5
  3
txt
  4
bigfont
  0
STYLE
  5
E1
330
3
100
AcDbSymbolTableRecord
100
AcDbTextStyleTableRecord
  2
SLDTEXTSTYLE0
 70
     0
 40
0.0
 41
0.75
 50
0.0
 71
     0
 42
3.5
  3
TXT
  4
bigfont
  0
STYLE
  5
135
330
3
100
AcDbSymbolTableRecord
100
AcDbTextStyleTableRecord
  2
SLDTEXTSTYLE1
 70
     0
 40
0.0
 41
0.65625
 50
0.0
 71
     0
 42
3.5
  3
TXT
  4
bigfont
  0
ENDTAB
  0
TABLE
  2
VIEW
  5
6
330
0
100
AcDbSymbolTable
 70
     0
  0
ENDTAB
  0
TABLE
  2
UCS
  5
7
330
0
100
AcDbSymbolTable
 70
     0
  0
ENDTAB
  0
TABLE
  2
APPID
  5
9
330
0
100
AcDbSymbolTable
 70
     4
  0
APPID
  5
12
330
9
100
AcDbSymbolTableRecord
100
AcDbRegAppTableRecord
  2
ACAD
 70
     0
  0
APPID
  5
2F4
330
9
100
AcDbSymbolTableRecord
100
AcDbRegAppTableRecord
  2
ACAD_DSTYLE_DIMJAG
 70
     0
  0
APPID
  5
2F5
330
9
100
AcDbSymbolTableRecord
100
AcDbRegAppTableRecord
  2
ACAD_DSTYLE_DIMTALN
 70
     0
  0
APPID
  5
2FE
330
9
100
AcDbSymbolTableRecord
100
AcDbRegAppTableRecord
  2
ACAD_PSEXT
 70
     0
  0
ENDTAB
  0
TABLE
  2
DIMSTYLE
  5
A
330
0
100
AcDbSymbolTable
 70
     4
100
AcDbDimStyleTable
  0
DIMSTYLE
105
27
330
A
100
AcDbSymbolTableRecord
100
AcDbDimStyleTableRecord
  2
ISO-25
 70
     0
 41
2.5
 42
0.625
 43
3.75
 44
1.25
 73
     0
 74
     0
 77
     1
 78
     8
140
2.5
141
2.5
143
0.03937007874016
147
0.625
171
     3
172
     1
178
     0
271
     2
272
     2
274
     3
278
    44
283
     0
284
     8
340
11
  0
DIMSTYLE
105
2EC
330
A
100
AcDbSymbolTableRecord
100
AcDbDimStyleTableRecord
  2
STANDARD
 70
     0
 41
2.5
 42
1.5
 44
1.0
 73
     0
 74
     0
 77
     3
 78
     8
 79
     2
140
2.500000000000003
141
0.0
147
1.0
171
     0
172
     1
173
     1
176
     8
177
     8
271
     2
178
   256
179
     2
271
     2
272
     2
274
     0
289
     1
340
11
341
2EE
343
2EE
344
2EE
1001
ACAD_DSTYLE_DIMJAG
1070
   388
1040
1.5
1001
ACAD_DSTYLE_DIMTALN
1070
   392
1070
     0
  0
DIMSTYLE
105
2F6
330
A
100
AcDbSymbolTableRecord
100
AcDbDimStyleTableRecord
  2
STANDARD$0
 70
     0
 41
2.5
 42
1.0
 43
4.0
 44
1.0
 73
     0
 74
     0
 77
     1
 78
     8
140
2.5
145
1.0
147
0.9999999999999991
171
     0
172
     1
176
     8
177
     8
271
     2
178
   256
271
     2
272
     2
274
     0
284
     8
289
     1
340
11
341
2F7
342
2EE
371
    -1
372
    -1
1001
ACAD_DSTYLE_DIMJAG
1070
   388
1040
1.5
1001
ACAD_DSTYLE_DIMTALN
1070
   392
1070
     0
  0
DIMSTYLE
105
2FD
330
A
100
AcDbSymbolTableRecord
100
AcDbDimStyleTableRecord
  2
STANDARD-1
 70
     0
 41
4.0
 42
3.0
 43
2.0
 44
2.0
 73
     0
 74
     0
 77
     3
 78
     8
 79
     2
140
5.0
141
0.0
147
2.0
172
     1
176
   252
177
   252
178
     0
179
     2
271
     2
272
     2
288
     1
289
     0
340
11
341
2EE
342
2EE
1001
ACAD_DSTYLE_DIMJAG
1070
   388
1040
1.5
1001
ACAD_DSTYLE_DIMTALN
1070
   392
1070
     0
  0
ENDTAB
  0
TABLE
  2
BLOCK_RECORD
  5
1
330
0
100
AcDbSymbolTable
 70
     4
  0
BLOCK_RECORD
  5
1F
330
1
100
AcDbSymbolTableRecord
100
AcDbBlockTableRecord
  2
*Model_Space
340
22
  0
BLOCK_RECORD
  5
1B
330
1
100
AcDbSymbolTableRecord
100
AcDbBlockTableRecord
  2
*Paper_Space
340
1E
  0
BLOCK_RECORD
  5
23
330
1
100
AcDbSymbolTableRecord
100
AcDbBlockTableRecord
  2
*Paper_Space0
340
26
  0
BLOCK_RECORD
  5
142
330
1
100
AcDbSymbolTableRecord
100
AcDbBlockTableRecord
  2
SW_NOTE_0
340
0
  0
BLOCK_RECORD
  5
2EE
330
1
100
AcDbSymbolTableRecord
100
AcDbBlockTableRecord
  2
_OPEN
340
0
  0
BLOCK_RECORD
  5
2F7
330
1
100
AcDbSymbolTableRecord
100
AcDbBlockTableRecord
  2
SUN
340
0
  0
ENDTAB
  0
ENDSEC
  0
SECTION
  2
BLOCKS
  0
BLOCK
  5
20
330
1F
100
AcDbEntity
  8
0
100
AcDbBlockBegin
  2
*Model_Space
 70
     0
 10
0.0
 20
0.0
 30
0.0
  3
*Model_Space
  1

  0
ENDBLK
  5
21
330
1F
100
AcDbEntity
  8
0
100
AcDbBlockEnd
  0
BLOCK
  5
1C
330
1B
100
AcDbEntity
 67
     1
  8
0
100
AcDbBlockBegin
  2
*Paper_Space
 70
     0
 10
0.0
 20
0.0
 30
0.0
  3
*Paper_Space
  1

  0
ENDBLK
  5
1D
330
1B
100
AcDbEntity
 67
     1
  8
0
100
AcDbBlockEnd
  0
BLOCK
  5
24
330
23
100
AcDbEntity
  8
0
100
AcDbBlockBegin
  2
*Paper_Space0
 70
     0
 10
0.0
 20
0.0
 30
0.0
  3
*Paper_Space0
  1

  0
ENDBLK
  5
25
330
23
100
AcDbEntity
  8
0
100
AcDbBlockEnd
  0
BLOCK
  5
143
330
142
100
AcDbEntity
  8
0
100
AcDbBlockBegin
  2
SW_NOTE_0
 70
     0
 10
0.0
 20
0.0
 30
0.0
  3
SW_NOTE_0
  1

  0
MTEXT
  5
145
330
142
100
AcDbEntity
  8
0
  6
Continuous
 62
     0
370
     0
100
AcDbMText
 10
0.0
 20
1.933601609657942
 30
0.0
 40
1.5
 41
0.0
 71
     1
 72
     1
  1
指示なき場合：
  7
SLDTEXTSTYLE0
 73
     1
 44
1.0
  0
MTEXT
  5
146
330
142
100
AcDbEntity
  8
0
  6
Continuous
 62
     0
370
     0
100
AcDbMText
 10
0.0
 20
-0.5663983344627033
 30
0.0
 40
1.5
 41
0.0
 71
     1
 72
     1
  1
寸法はミリメータとする　
  7
SLDTEXTSTYLE0
 73
     1
 44
1.0
  0
MTEXT
  5
147
330
142
100
AcDbEntity
  8
0
  6
Continuous
 62
     0
370
     0
100
AcDbMText
 10
0.0
 20
-3.066398278583349
 30
0.0
 40
1.5
 41
0.0
 71
     1
 72
     1
  1
表面粗さ：
  7
SLDTEXTSTYLE0
 73
     1
 44
1.0
  0
MTEXT
  5
148
330
142
100
AcDbEntity
  8
0
  6
Continuous
 62
     0
370
     0
100
AcDbMText
 10
0.0
 20
-5.566398222703994
 30
0.0
 40
1.5
 41
0.0
 71
     1
 72
     1
  1
　公差　：
  7
SLDTEXTSTYLE0
 73
     1
 44
1.0
  0
MTEXT
  5
149
330
142
100
AcDbEntity
  8
0
  6
Continuous
 62
     0
370
     0
100
AcDbMText
 10
0.0
 20
-8.06639816682464
 30
0.0
 40
1.5
 41
0.0
 71
     1
 72
     1
  1
　寸法　：
  7
SLDTEXTSTYLE0
 73
     1
 44
1.0
  0
MTEXT
  5
14A
330
142
100
AcDbEntity
  8
0
  6
Continuous
 62
     0
370
     0
100
AcDbMText
 10
0.0
 20
-10.56639811094528
 30
0.0
 40
1.5
 41
0.0
 71
     1
 72
     1
  1
　角度　：
  7
SLDTEXTSTYLE0
 73
     1
 44
1.0
  0
ENDBLK
  5
144
330
142
100
AcDbEntity
  8
0
100
AcDbBlockEnd
  0
BLOCK
  5
2EF
330
2EE
100
AcDbEntity
  8
0
100
AcDbBlockBegin
  2
_OPEN
 70
     0
 10
0.0
 20
0.0
 30
0.0
  3
_OPEN
  1

  0
LINE
  5
2F0
330
2EE
100
AcDbEntity
  8
0
  6
ByBlock
 62
     0
100
AcDbLine
 10
-1.0
 20
0.1666666666666667
 30
0.0
 11
0.0
 21
0.0
 31
0.0
  0
LINE
  5
2F1
330
2EE
100
AcDbEntity
  8
0
  6
ByBlock
 62
     0
100
AcDbLine
 10
0.0
 20
0.0
 30
0.0
 11
-1.0
 21
-0.1666666666666667
 31
0.0
  0
LINE
  5
2F2
330
2EE
100
AcDbEntity
  8
0
  6
ByBlock
 62
     0
100
AcDbLine
 10
0.0
 20
0.0
 30
0.0
 11
-1.0
 21
0.0
 31
0.0
  0
ENDBLK
  5
2F3
330
2EE
100
AcDbEntity
  8
0
100
AcDbBlockEnd
  0
BLOCK
  5
2F8
330
2F7
100
AcDbEntity
  8
0
100
AcDbBlockBegin
  2
SUN
 70
     0
 10
0.0
 20
0.0
 30
0.0
  3
SUN
  1

  0
LINE
  5
2F9
330
2F7
100
AcDbEntity
  8
0
100
AcDbLine
 10
-0.0000000000000568
 20
0.0
 30
0.0
 11
-1.500000000000057
 21
0.0
 31
0.0
  0
LINE
  5
2FA
330
2F7
100
AcDbEntity
  8
0
100
AcDbLine
 10
-0.0000000000000568
 20
0.0000000000000284
 30
0.0
 11
-1.500000000000057
 21
0.401923788646684
 31
0.0
  0
LINE
  5
2FB
330
2F7
100
AcDbEntity
  8
0
100
AcDbLine
 10
-0.0000000000000568
 20
0.0000000000000284
 30
0.0
 11
-1.500000000000057
 21
-0.4019237886466556
 31
0.0
  0
ENDBLK
  5
2FC
330
2F7
100
AcDbEntity
  8
0
100
AcDbBlockEnd
  0
ENDSEC
  0
SECTION
  2
ENTITIES
  0
LINE
  5
1C0
330
1F
100
AcDbEntity
  8
0
  6
Continuous
 62
     7
370
    25
100
AcDbLine
 10
260.7894851342349
 20
407.384617071478
 30
0.0
 11
470.8001927403182
 21
286.1480161640958
 31
0.0
  0
LINE
  5
1C1
330
1F
100
AcDbEntity
  8
0
  6
Continuous
 62
     7
370
    25
100
AcDbLine
 10
264.6785724096875
 20
409.629739366825
 30
0.0
 11
474.6892800157707
 21
288.3931384594429
 31
0.0
  0
LINE
  5
1C3
330
1F
100
AcDbEntity
  8
0
  6
Continuous
 62
     7
370
    25
100
AcDbLine
 10
264.6785724096875
 20
440.6582892207562
 30
0.0
 11
474.6892800157707
 21
319.421688313374
 31
0.0
  0
LINE
  5
1C8
330
1F
100
AcDbEntity
  8
0
  6
Continuous
 62
     7
370
    25
100
AcDbLine
 10
247.0716138331506
 20
399.4654585333911
 30
0.0
 11
457.0823214392339
 21
278.228857626009
 31
0.0
  0
LINE
  5
1C9
330
1F
100
AcDbEntity
  8
0
  6
Continuous
 62
     7
370
    25
100
AcDbLine
 10
246.7180603846054
 20
399.2613564719805
 30
0.0
 11
456.7287679906887
 21
278.0247555645984
 31
0.0
  0
MTEXT
  5
30D
330
1F
100
AcDbEntity
  8
寸法線
100
AcDbMText
 10
587.5205389234568
 20
-112.0873014913578
 30
0.0
 40
11.66666666666667
 41
273.3522079092452
 71
     1
 72
     5
  1
{MPP-10/1200/COS90/J}
 73
     1
 44
1.0
1001
ACAD
1000
ACAD_MTEXT_DEFINED_HEIGHT_BEGIN
1070
    46
1040
11.66666666666667
1000
ACAD_MTEXT_DEFINED_HEIGHT_END
  0
LINE
  5
49C
330
1F
100
AcDbEntity
  8
0
  6
Continuous
 62
     7
370
    25
100
AcDbLine
 10
470.8001927403182
 20
286.1480161640957
 30
0.0
 11
680.8109003464015
 21
164.9114152567136
 31
0.0
  0
LINE
  5
49D
330
1F
100
AcDbEntity
  8
0
  6
Continuous
 62
     7
370
    25
100
AcDbLine
 10
474.6892800157707
 20
288.3931384594428
 30
0.0
 11
684.6999876218539
 21
167.1565375520607
 31
0.0
  0
LINE
  5
49F
330
1F
100
AcDbEntity
  8
0
  6
Continuous
 62
     7
370
    25
100
AcDbLine
 10
474.6892800157707
 20
319.421688313374
 30
0.0
 11
684.6999876218539
 21
198.1850874059918
 31
0.0
  0
LINE
  5
4A4
330
1F
100
AcDbEntity
  8
0
  6
Continuous
 62
     7
370
    25
100
AcDbLine
 10
457.0823214392337
 20
278.2288576260088
 30
0.0
 11
667.093029045317
 21
156.9922567186268
 31
0.0
  0
LINE
  5
4A5
330
1F
100
AcDbEntity
  8
0
  6
Continuous
 62
     7
370
    25
100
AcDbLine
 10
456.7287679906885
 20
278.0247555645983
 30
0.0
 11
666.7394755967719
 21
156.7881546572162
 31
0.0
  0
LINE
  5
5CA
330
1F
100
AcDbEntity
  8
0
  6
Continuous
 62
     7
370
    25
100
AcDbLine
 10
680.8109003464014
 20
164.9114152567135
 30
0.0
 11
890.8216079524847
 21
43.67481434933131
 31
0.0
  0
LINE
  5
5CB
330
1F
100
AcDbEntity
  8
0
  6
Continuous
 62
     7
370
    25
100
AcDbLine
 10
684.6999876218539
 20
167.1565375520605
 30
0.0
 11
894.7106952279371
 21
45.91993664467844
 31
0.0
  0
LINE
  5
5CC
330
1F
100
AcDbEntity
  8
0
  6
Continuous
 62
     7
370
    25
100
AcDbLine
 10
684.6999876218539
 20
198.1850874059918
 30
0.0
 11
894.7106952279371
 21
76.9484864986095
 31
0.0
  0
LINE
  5
5CF
330
1F
100
AcDbEntity
  8
0
  6
Continuous
 62
     7
370
    25
100
AcDbLine
 10
667.0930290453169
 20
156.9922567186266
 30
0.0
 11
877.1037366514003
 21
35.75565581124454
 31
0.0
  0
LINE
  5
5D0
330
1F
100
AcDbEntity
  8
0
  6
Continuous
 62
     7
370
    25
100
AcDbLine
 10
666.7394755967717
 20
156.788154657216
 30
0.0
 11
876.750183202855
 21
35.55155374983394
 31
0.0
  0
ARC
  5
5E5
330
1F
100
AcDbEntity
  8
0
  6
Continuous
 62
     7
370
    25
100
AcDbCircle
 10
1105.499220401854
 20
-75.7656621215418
 30
0.0
 40
0.1999999999999886
100
AcDbArc
 50
299.997311733653
 51
0.0
  0
LINE
  5
5E6
330
1F
100
AcDbEntity
  8
0
  6
Continuous
 62
     7
370
    25
100
AcDbLine
 10
1105.69922050314
 20
-75.76566205107801
 30
0.0
 11
1105.69922050314
 21
-45.0637282403587
 31
0.0
  0
LINE
  5
5E7
330
1F
100
AcDbEntity
  8
0
  6
Continuous
 62
     7
370
    25
100
AcDbLine
 10
1099.600424091961
 20
-79.40189855743901
 30
0.0
 11
1105.599212370114
 21
-75.93887179705868
 31
0.0
  0
LINE
  5
5E8
330
1F
100
AcDbEntity
  8
0
  6
Continuous
 62
     7
370
    25
100
AcDbLine
 10
1087.921542577033
 20
-86.14397334691037
 30
0.0
 11
1093.920330855185
 21
-82.6809465865301
 31
0.0
  0
LINE
  5
5E9
330
1F
100
AcDbEntity
  8
0
  6
Continuous
 62
     7
370
    25
100
AcDbLine
 10
1086.943741855145
 20
-85.69494864429478
 30
0.0
 11
1087.721559320525
 21
-86.14397310930431
 31
0.0
  0
ARC
  5
5EA
330
1F
100
AcDbEntity
  8
0
  6
Continuous
 62
     7
370
    25
100
AcDbCircle
 10
1087.82155087219
 20
-85.97076351932557
 30
0.0
 40
0.1999999999999915
100
AcDbArc
 50
240.0026882663306
 51
299.9973117336673
  0
LINE
  5
5EB
330
1F
100
AcDbEntity
  8
0
  6
Continuous
 62
     7
370
    25
100
AcDbLine
 10
1105.599211958523
 20
-44.8905174843496
 30
0.0
 11
1104.821394493144
 21
-44.44149301934007
 31
0.0
  0
ARC
  5
5EC
330
1F
100
AcDbEntity
  8
0
  6
Continuous
 62
     7
370
    25
100
AcDbCircle
 10
1105.499220401854
 20
-45.06372759463747
 30
0.0
 40
0.1999999999999915
100
AcDbArc
 50
0.0
 51
60.00268826634591
  0
LINE
  5
5ED
330
1F
100
AcDbEntity
  8
0
  6
Continuous
 62
     7
370
    25
100
AcDbLine
 10
1086.902311924939
 20
-85.60340648505186
 30
0.0
 11
1104.57998171802
 21
-75.39830493520017
 31
0.0
  0
ARC
  5
5EE
330
1F
100
AcDbEntity
  8
0
  6
Continuous
 62
     7
370
    25
100
AcDbCircle
 10
1104.776610356128
 20
-44.51907613483186
 30
0.0
 40
0.0873410548015076
100
AcDbArc
 50
350.7848636093294
 51
129.2043846359735
  0
LINE
  5
5EF
330
1F
100
AcDbEntity
  8
0
  6
Continuous
 62
     7
370
    25
100
AcDbLine
 10
1104.862824186685
 20
-75.23499691357202
 30
0.0
 11
1104.862824186685
 21
-44.53306310285276
 31
0.0
  0
ARC
  5
5F0
330
1F
100
AcDbEntity
  8
0
  6
Continuous
 62
     7
370
    25
100
AcDbCircle
 10
1104.555780573056
 20
-75.2210245274949
 30
0.0
 40
0.3073613642651919
100
AcDbArc
 50
302.6055705212341
 51
357.3944846941419
  0
LINE
  5
5F1
330
1F
100
AcDbEntity
  8
0
  6
Continuous
 62
     7
370
    25
100
AcDbLine
 10
1104.721403070685
 20
-75.31666411909399
 30
0.0
 11
1104.721403070685
 21
-75.47994574431996
 31
0.0
  0
LINE
  5
5F2
330
1F
100
AcDbEntity
  8
0
  6
Continuous
 62
     7
370
    25
100
AcDbLine
 10
1093.266272969776
 20
-82.33777404897612
 30
0.0
 11
1098.923127487955
 21
-79.07214144657601
 31
0.0
  0
LINE
  5
5F3
330
1F
100
AcDbEntity
  8
0
  6
Continuous
 62
     7
370
    25
100
AcDbLine
 10
1093.266272969776
 20
-82.33777404897612
 30
0.0
 11
1093.822084493355
 21
-82.67003735913758
 31
0.0
  0
LINE
  5
5F4
330
1F
100
AcDbEntity
  8
0
  6
Continuous
 62
     7
370
    25
100
AcDbLine
 10
1087.821550742984
 20
-86.1340717591813
 30
0.0
 11
1093.822084493355
 21
-82.67003735913758
 31
0.0
  0
LINE
  5
5F5
330
1F
100
AcDbEntity
  8
0
  6
Continuous
 62
     7
370
    25
100
AcDbLine
 10
1087.043733277603
 20
-85.68504729417177
 30
0.0
 11
1087.821550742984
 21
-86.1340717591813
 31
0.0
  0
LINE
  5
5F6
330
1F
100
AcDbEntity
  8
0
  6
Continuous
 62
     7
370
    25
100
AcDbLine
 10
1086.902311924939
 20
-85.60340648505186
 30
0.0
 11
1087.043733277603
 21
-85.68504729417177
 31
0.0
  0
LINE
  5
5F7
330
1F
100
AcDbEntity
  8
0
  6
Continuous
 62
     7
370
    25
100
AcDbLine
 10
1104.721403070685
 20
-75.47994574431996
 30
0.0
 11
1104.57998171802
 21
-75.39830493520017
 31
0.0
  0
LINE
  5
5F8
330
1F
100
AcDbEntity
  8
0
  6
Continuous
 62
     7
370
    25
100
AcDbLine
 10
1105.499220536065
 20
-75.92897020932966
 30
0.0
 11
1104.721403070685
 21
-75.47994574431996
 31
0.0
  0
LINE
  5
5F9
330
1F
100
AcDbEntity
  8
0
  6
Continuous
 62
     7
370
    25
100
AcDbLine
 10
1099.498686785694
 20
-79.39300460937338
 30
0.0
 11
1105.499220536065
 21
-75.92897020932966
 31
0.0
  0
LINE
  5
5FA
330
1F
100
AcDbEntity
  8
0
  6
Continuous
 62
     7
370
    25
100
AcDbLine
 10
1098.923127487955
 20
-79.07214144657601
 30
0.0
 11
1099.498686785694
 21
-79.39300460937338
 31
0.0
  0
ARC
  5
5FB
330
1F
100
AcDbEntity
  8
0
  6
Continuous
 62
     7
370
    25
100
AcDbCircle
 10
1105.333598038436
 20
-75.67004899250426
 30
0.0
 40
0.3073613642656285
100
AcDbArc
 50
302.6055705212726
 51
357.3944846941152
  0
LINE
  5
5FC
330
1F
100
AcDbEntity
  8
0
  6
Continuous
 62
     7
370
    25
100
AcDbLine
 10
1104.862824186685
 20
-75.23499691357202
 30
0.0
 11
1105.640641652065
 21
-75.6840213785816
 31
0.0
  0
LINE
  5
5FD
330
1F
100
AcDbEntity
  8
0
  6
Continuous
 62
     7
370
    25
100
AcDbLine
 10
1105.640641652065
 20
-44.98208756786241
 30
0.0
 11
1104.862824186685
 21
-44.53306310285276
 31
0.0
  0
LINE
  5
5FE
330
1F
100
AcDbEntity
  8
0
  6
Continuous
 62
     7
370
    25
100
AcDbLine
 10
1105.640641652065
 20
-75.6840213785816
 30
0.0
 11
1105.640641652065
 21
-44.98208756786241
 31
0.0
  0
ELLIPSE
  5
5FF
330
1F
100
AcDbEntity
  8
0
  6
Continuous
 62
     7
370
    25
100
AcDbEllipse
 10
1099.49868683759
 20
-79.22969641414826
 30
0.0
 11
-0.1026525863728125
 21
0.1716643463722675
 31
0.0
210
0.0
220
0.0
230
1.0
 40
0.5873687162541295
 41
2.347239087449359
 42
3.13255598678494
  0
ELLIPSE
  5
600
330
1F
100
AcDbEntity
  8
0
  6
Continuous
 62
     7
370
    25
100
AcDbEllipse
 10
1093.822084436454
 20
-82.50672922671899
 30
0.0
 11
-0.09741494644123351
 21
0.1746892004040888
 31
0.0
210
0.0
220
0.0
230
1.0
 40
0.5672183927598565
 41
2.364703013104635
 42
3.935499339898095
  0
LINE
  5
601
330
1F
100
AcDbEntity
  8
0
  6
Continuous
 62
     7
370
    25
100
AcDbLine
 10
1093.961037302221
 20
-82.58979508188762
 30
0.0
 11
1093.961037302221
 21
-81.9366950902444
 31
0.0
  0
ARC
  5
602
330
1F
100
AcDbEntity
  8
0
  6
Continuous
 62
     7
370
    25
100
AcDbCircle
 10
1086.988527039809
 20
-85.61736518874088
 30
0.0
 40
0.087341834689551
100
AcDbArc
 50
170.7860017458043
 51
309.2030804342534
  0
LINE
  5
603
330
1F
100
AcDbEntity
  8
0
  6
Continuous
 62
     7
370
    25
100
AcDbLine
 10
890.8216079524846
 20
43.67481434933126
 30
0.0
 11
1100.832315558568
 21
-77.5617865580509
 31
0.0
  0
LINE
  5
604
330
1F
100
AcDbEntity
  8
0
  6
Continuous
 62
     7
370
    25
100
AcDbLine
 10
894.7106952279371
 20
45.91993664467833
 30
0.0
 11
1104.72140283402
 21
-75.31666426270377
 31
0.0
  0
LINE
  5
605
330
1F
100
AcDbEntity
  8
0
  6
Continuous
 62
     7
370
    25
100
AcDbLine
 10
1100.832315558568
 20
-77.5617865580509
 30
0.0
 11
1104.72140283402
 21
-75.31666426270377
 31
0.0
  0
LINE
  5
606
330
1F
100
AcDbEntity
  8
0
  6
Continuous
 62
     7
370
    25
100
AcDbLine
 10
894.7106952279371
 20
76.9484864986095
 30
0.0
 11
1104.72140283402
 21
-44.28811440877271
 31
0.0
  0
LINE
  5
607
330
1F
100
AcDbEntity
  8
0
  6
Continuous
 62
     7
370
    25
100
AcDbLine
 10
1104.72140283402
 20
-75.31666426270377
 30
0.0
 11
1104.72140283402
 21
-44.28811440877271
 31
0.0
  0
ELLIPSE
  5
608
330
1F
100
AcDbEntity
  8
0
  6
Continuous
 62
     7
370
    25
100
AcDbEllipse
 10
1052.494648147197
 20
-89.38192368957007
 30
0.0
 11
39.8705369007541
 21
32.52861516048678
 31
0.0
210
0.0
220
0.0
230
1.0
 40
0.4458570691550952
 41
5.317963906477157
 42
5.662729421897031
  0
LINE
  5
609
330
1F
100
AcDbEntity
  8
0
  6
Continuous
 62
     7
370
    25
100
AcDbLine
 10
877.1037366514001
 20
35.75565581124437
 30
0.0
 11
1087.114444257484
 21
-85.48094509613767
 31
0.0
  0
LINE
  5
60A
330
1F
100
AcDbEntity
  8
0
  6
Continuous
 62
     7
370
    25
100
AcDbLine
 10
876.7501832028549
 20
35.55155374983377
 30
0.0
 11
1086.760890808938
 21
-85.68504715754827
 31
0.0
  0
LINE
  5
60B
330
1F
100
AcDbEntity
  8
0
  6
Continuous
 62
     7
370
    25
100
AcDbLine
 10
1086.760890808938
 20
-85.68504715754827
 30
0.0
 11
1087.114444257484
 21
-85.48094509613767
 31
0.0
  0
ARC
  5
60C
330
1F
100
AcDbEntity
  8
0
  6
Continuous
 62
     8
370
    25
100
AcDbCircle
 10
1105.557804499078
 20
-75.8471940566915
 30
0.0
 40
0.1005953272403063
100
AcDbArc
 50
234.3824071859464
 51
294.3071553650095
  0
ARC
  5
60D
330
1F
100
AcDbEntity
  8
0
  6
Continuous
 62
     8
370
    25
100
AcDbCircle
 10
1105.599129575864
 20
-75.77564323935567
 30
0.0
 40
0.1005873642274015
100
AcDbArc
 50
5.694777307569656
 51
65.62564794314184
  0
ARC
  5
60E
330
1F
100
AcDbEntity
  8
0
  6
Continuous
 62
     8
370
    25
100
AcDbCircle
 10
1105.599129575864
 20
-45.07370942863631
 30
0.0
 40
0.1005873642271758
100
AcDbArc
 50
5.694777307468973
 51
65.62564794308506
  0
ARC
  5
60F
330
1F
100
AcDbEntity
  8
0
  6
Continuous
 62
     8
370
    25
100
AcDbCircle
 10
1087.880134705996
 20
-86.05229560654348
 30
0.0
 40
0.100595327240016
100
AcDbArc
 50
234.3824071860296
 51
294.3071553653388
  0
ARC
  5
610
330
1F
100
AcDbEntity
  8
0
  6
Continuous
 62
     8
370
    25
100
AcDbCircle
 10
1087.76296731395
 20
-86.05229707776888
 30
0.0
 40
0.1005938202749814
100
AcDbArc
 50
245.6923804638097
 51
305.6178335841068
  0
ARC
  5
611
330
1F
100
AcDbEntity
  8
0
  6
Continuous
 62
     8
370
    25
100
AcDbCircle
 10
1105.548339291986
 20
-44.96869136560477
 30
0.0
 40
0.0932694157331366
100
AcDbArc
 50
351.7420985273234
 51
56.9454123886149
  0
LINE
  5
704
330
1F
100
AcDbEntity
  8
0
  6
Continuous
 62
     7
370
    25
100
AcDbLine
 10
255.0508848277358
 20
426.0365410326119
 30
0.0
 11
249.3636365048804
 21
429.3197196049755
 31
0.0
  0
ARC
  5
705
330
1F
100
AcDbEntity
  8
0
  6
Continuous
 62
     7
370
    25
100
AcDbCircle
 10
245.9402428167722
 20
400.0369706555728
 30
0.0
 40
0.2000000000001592
100
AcDbArc
 50
180.0
 51
240.0026882663228
  0
LINE
  5
706
330
1F
100
AcDbEntity
  8
0
  6
Continuous
 62
     7
370
    25
100
AcDbLine
 10
245.7402427154864
 20
430.7389043875772
 30
0.0
 11
245.7402427154864
 21
400.0369705768579
 31
0.0
  0
LINE
  5
707
330
1F
100
AcDbEntity
  8
0
  6
Continuous
 62
     7
370
    25
100
AcDbLine
 10
245.8402512601021
 20
399.8637610684833
 30
0.0
 11
246.6180687254824
 21
399.4147366034737
 31
0.0
  0
ARC
  5
708
330
1F
100
AcDbEntity
  8
0
  6
Continuous
 62
     7
370
    25
100
AcDbCircle
 10
263.6179123464358
 20
440.9440065802607
 30
0.0
 40
0.2000000000000692
100
AcDbArc
 50
60.00268826634286
 51
119.9973117336208
  0
LINE
  5
709
330
1F
100
AcDbEntity
  8
0
  6
Continuous
 62
     7
370
    25
100
AcDbLine
 10
263.5179206415934
 20
441.117216931044
 30
0.0
 11
262.2451286219573
 21
440.3824497380676
 31
0.0
  0
LINE
  5
70A
330
1F
100
AcDbEntity
  8
0
  6
Continuous
 62
     7
370
    25
100
AcDbLine
 10
264.495721363481
 20
440.6681922284284
 30
0.0
 11
263.7179038981008
 21
441.117216693438
 31
0.0
  0
LINE
  5
70B
330
1F
100
AcDbEntity
  8
0
  6
Continuous
 62
     7
370
    25
100
AcDbLine
 10
252.8874818253157
 20
424.7876368161055
 30
0.0
 11
251.1079277883497
 21
425.9636532520827
 31
0.0
  0
LINE
  5
70C
330
1F
100
AcDbEntity
  8
0
  6
Continuous
 62
     7
370
    25
100
AcDbLine
 10
249.3636365048804
 20
429.3197196049755
 30
0.0
 11
248.302976323881
 21
429.9320256941649
 31
0.0
  0
LINE
  5
70D
330
1F
100
AcDbEntity
  8
0
  6
Continuous
 62
     7
370
    25
100
AcDbLine
 10
247.1130428681477
 20
431.6468825741687
 30
0.0
 11
245.8402508485119
 21
430.9121153811923
 31
0.0
  0
ARC
  5
70E
330
1F
100
AcDbEntity
  8
0
  6
Continuous
 62
     7
370
    25
100
AcDbCircle
 10
245.9402428167722
 20
430.738905182477
 30
0.0
 40
0.2000000000001592
100
AcDbArc
 50
119.9973117337065
 51
180.0000000000163
  0
LINE
  5
70F
330
1F
100
AcDbEntity
  8
0
  6
Continuous
 62
     7
370
    25
100
AcDbLine
 10
253.1906118379736
 20
424.9626292482769
 30
0.0
 11
252.7133914687273
 21
424.9026832535655
 31
0.0
  0
LINE
  5
710
330
1F
100
AcDbEntity
  8
0
  6
Continuous
 62
     7
370
    25
100
AcDbLine
 10
249.6271673307747
 20
414.3164725635224
 30
0.0
 11
249.4857459678203
 21
414.3981133785825
 31
0.0
  0
LINE
  5
711
330
1F
100
AcDbEntity
  8
0
  6
Continuous
 62
     7
370
    25
100
AcDbLine
 10
247.4859082990257
 20
410.9339187917636
 30
0.0
 11
247.6273296619802
 21
410.8522779767036
 31
0.0
  0
LINE
  5
712
330
1F
100
AcDbEntity
  8
0
  6
Continuous
 62
     7
370
    25
100
AcDbLine
 10
248.729110596829
 20
413.1428369502802
 30
0.0
 11
249.1003869186501
 21
412.8084933886868
 31
0.0
  0
LINE
  5
713
330
1F
100
AcDbEntity
  8
0
  6
Continuous
 62
     7
370
    25
100
AcDbLine
 10
248.6696748147139
 20
412.0626194888483
 30
0.0
 11
248.194496921259
 21
412.2169311484641
 31
0.0
  0
LINE
  5
714
330
1F
100
AcDbEntity
  8
0
  6
Continuous
 62
     7
370
    25
100
AcDbLine
 10
261.9308254962228
 20
423.5963737403257
 30
0.0
 11
261.7894041332683
 21
423.6780145553857
 31
0.0
  0
LINE
  5
715
330
1F
100
AcDbEntity
  8
0
  6
Continuous
 62
     7
370
    25
100
AcDbLine
 10
259.7895664644737
 20
420.2138184476411
 30
0.0
 11
259.9309878274282
 21
420.1321776325811
 31
0.0
  0
LINE
  5
716
330
1F
100
AcDbEntity
  8
0
  6
Continuous
 62
     7
370
    25
100
AcDbLine
 10
261.032768762277
 20
422.4227381270833
 30
0.0
 11
261.4040450840981
 21
422.0883938050271
 31
0.0
  0
LINE
  5
717
330
1F
100
AcDbEntity
  8
0
  6
Continuous
 62
     7
370
    25
100
AcDbLine
 10
260.973332980162
 20
421.3425199051886
 30
0.0
 11
260.4981544281626
 21
421.4968319450977
 31
0.0
  0
LINE
  5
718
330
1F
100
AcDbEntity
  8
0
  6
Continuous
 62
     7
370
    25
100
AcDbLine
 10
264.6785724096875
 20
440.6582892207562
 30
0.0
 11
264.5371512936872
 21
440.5766485482598
 31
0.0
  0
LINE
  5
719
330
1F
100
AcDbEntity
  8
0
  6
Continuous
 62
     7
370
    25
100
AcDbLine
 10
264.6785724096875
 20
440.6582892207562
 30
0.0
 11
264.6785724096875
 21
409.629739366825
 31
0.0
  0
LINE
  5
71A
330
1F
100
AcDbEntity
  8
0
  6
Continuous
 62
     7
370
    25
100
AcDbLine
 10
264.6785724096875
 20
409.629739366825
 30
0.0
 11
264.1157038820025
 21
409.3048022822728
 31
0.0
  0
LINE
  5
71B
330
1F
100
AcDbEntity
  8
0
  6
Continuous
 62
     7
370
    25
100
AcDbLine
 10
252.7284680220569
 20
402.7310909457063
 30
0.0
 11
246.7180603846054
 21
399.2613564719805
 31
0.0
  0
LINE
  5
71C
330
1F
100
AcDbEntity
  8
0
  6
Continuous
 62
     7
370
    25
100
AcDbLine
 10
246.7180603846054
 20
399.2613564719805
 30
0.0
 11
246.7180603846054
 21
399.4246380972066
 31
0.0
  0
LINE
  5
71D
330
1F
100
AcDbEntity
  8
0
  6
Continuous
 62
     7
370
    25
100
AcDbLine
 10
248.1322735202417
 20
431.1063141913845
 30
0.0
 11
248.1322735202417
 21
429.8813058129048
 31
0.0
  0
ARC
  5
71E
330
1F
100
AcDbEntity
  8
0
  6
Continuous
 62
     7
370
    25
100
AcDbCircle
 10
249.3099299702985
 20
429.2402639793521
 30
0.0
 40
0.0959040577870503
100
AcDbArc
 50
352.7449273930191
 51
55.94401316887001
  0
LINE
  5
71F
330
1F
100
AcDbEntity
  8
0
  6
Continuous
 62
     7
370
    25
100
AcDbLine
 10
249.4050661984221
 20
429.2281525633143
 30
0.0
 11
249.4050661984221
 21
428.329957675107
 31
0.0
  0
LINE
  5
720
330
1F
100
AcDbEntity
  8
0
  6
Continuous
 62
     7
370
    25
100
AcDbLine
 10
250.8468295435499
 20
425.864802380977
 30
0.0
 11
249.4050657045138
 21
426.6971149289819
 31
0.0
  0
LINE
  5
721
330
1F
100
AcDbEntity
  8
0
  6
Continuous
 62
     7
370
    25
100
AcDbLine
 10
255.98260676852
 20
426.5744132713768
 30
0.0
 11
248.1322735202417
 21
431.1063141913845
 31
0.0
  0
ARC
  5
722
330
1F
100
AcDbEntity
  8
0
  6
Continuous
 62
     7
370
    25
100
AcDbCircle
 10
263.7835343911434
 20
410.3376851506169
 30
0.0
 40
0.3073610213818488
100
AcDbArc
 50
182.6054851425397
 51
237.3945174100827
  0
ARC
  5
723
330
1F
100
AcDbEntity
  8
0
  6
Continuous
 62
     7
370
    25
100
AcDbCircle
 10
263.6179122145913
 20
410.0507700672527
 30
0.0
 40
0.3074048483892221
100
AcDbArc
 50
62.60971294835799
 51
117.3902292930312
  0
ARC
  5
724
330
1F
100
AcDbEntity
  8
0
  6
Continuous
 62
     7
370
    25
100
AcDbCircle
 10
263.4522899780137
 20
410.3376851852832
 30
0.0
 40
0.3073613642651613
100
AcDbArc
 50
302.6055705212148
 51
357.3944846941412
  0
LINE
  5
725
330
1F
100
AcDbEntity
  8
0
  6
Continuous
 62
     7
370
    25
100
AcDbLine
 10
263.4764911126877
 20
410.3237129417697
 30
0.0
 11
263.4764911126877
 21
441.0256467524889
 31
0.0
  0
ARC
  5
726
330
1F
100
AcDbEntity
  8
0
  6
Continuous
 62
     7
370
    25
100
AcDbCircle
 10
263.6179122145913
 20
440.7527038779718
 30
0.0
 40
0.3074048483893675
100
AcDbArc
 50
62.60971294837262
 51
117.3902292930166
  0
LINE
  5
727
330
1F
100
AcDbEntity
  8
0
  6
Continuous
 62
     7
370
    25
100
AcDbLine
 10
263.7593335916425
 20
441.0256466099253
 30
0.0
 11
263.7593335916425
 21
410.323712799206
 31
0.0
  0
LINE
  5
728
330
1F
100
AcDbEntity
  8
0
  6
Continuous
 62
     7
370
    25
100
AcDbLine
 10
263.6179124756422
 20
410.078763968458
 30
0.0
 11
257.6173787252712
 21
406.6147295684142
 31
0.0
  0
ELLIPSE
  5
729
330
1F
100
AcDbEntity
  8
0
  6
Continuous
 62
     7
370
    25
100
AcDbEllipse
 10
257.6173787821716
 20
406.77803776075
 30
0.0
 11
-0.09741494644129034
 21
0.1746892004041456
 31
0.0
210
0.0
220
0.0
230
1.0
 40
0.5672183927596659
 41
0.7939066863094856
 42
2.364703013104338
  0
LINE
  5
72A
330
1F
100
AcDbEntity
  8
0
  6
Continuous
 62
     7
370
    25
100
AcDbLine
 10
257.4784259164048
 20
406.8611036076676
 30
0.0
 11
263.4764911126877
 21
410.3237129417697
 31
0.0
  0
LINE
  5
72B
330
1F
100
AcDbEntity
  8
0
  6
Continuous
 62
     7
370
    25
100
AcDbLine
 10
264.3957299410225
 20
409.6297395034485
 30
0.0
 11
263.6179124756422
 21
410.078763968458
 31
0.0
  0
LINE
  5
72C
330
1F
100
AcDbEntity
  8
0
  6
Continuous
 62
     7
370
    25
100
AcDbLine
 10
263.7593335916425
 20
410.323712799206
 30
0.0
 11
264.5371510570228
 21
409.8746883341965
 31
0.0
  0
ARC
  5
72D
330
1F
100
AcDbEntity
  8
0
  6
Continuous
 62
     7
370
    25
100
AcDbCircle
 10
264.2301074433937
 20
409.8886607202738
 30
0.0
 40
0.3073613642653795
100
AcDbArc
 50
302.6055705212391
 51
357.3944846941326
  0
LINE
  5
72E
330
1F
100
AcDbEntity
  8
0
  6
Continuous
 62
     7
370
    25
100
AcDbLine
 10
258.1294162603365
 20
427.8137405469035
 30
0.0
 11
251.1458961719575
 21
423.7822402127798
 31
0.0
  0
LINE
  5
72F
330
1F
100
AcDbEntity
  8
0
  6
Continuous
 62
     7
370
    25
100
AcDbLine
 10
258.1294162603365
 20
429.9057405002387
 30
0.0
 11
258.1294162603365
 21
427.8137405469035
 31
0.0
  0
ELLIPSE
  5
730
330
1F
100
AcDbEntity
  8
0
  6
Continuous
 62
     7
370
    25
100
AcDbEllipse
 10
258.2709236995164
 20
429.987232367536
 30
0.0
 11
0.09999184349464937
 21
0.1732097896633036
 31
0.0
210
0.0
220
0.0
230
1.0
 40
0.578085210186674
 41
0.7859256885265875
 42
2.35550404014995
  0
LINE
  5
731
330
1F
100
AcDbEntity
  8
0
  6
Continuous
 62
     7
370
    25
100
AcDbLine
 10
260.9309064148713
 20
431.6862153667647
 30
0.0
 11
258.2707514362785
 21
430.1505405853799
 31
0.0
  0
LINE
  5
732
330
1F
100
AcDbEntity
  8
0
  6
Continuous
 62
     7
370
    25
100
AcDbLine
 10
260.9309064148713
 20
437.1064906701106
 30
0.0
 11
260.9309064148713
 21
431.6862153667647
 31
0.0
  0
ARC
  5
733
330
1F
100
AcDbEntity
  8
0
  6
Continuous
 62
     7
370
    25
100
AcDbCircle
 10
261.2379551471205
 20
437.0925149964876
 30
0.0
 40
0.3073666270580666
100
AcDbArc
 50
122.6059299306699
 51
177.3939158759433
  0
LINE
  5
734
330
1F
100
AcDbEntity
  8
0
  6
Continuous
 62
     7
370
    25
100
AcDbLine
 10
262.2036990930517
 20
438.0045661282169
 30
0.0
 11
261.0723281894161
 21
437.3514396077369
 31
0.0
  0
LINE
  5
735
330
1F
100
AcDbEntity
  8
0
  6
Continuous
 62
     7
370
    25
100
AcDbLine
 10
262.2036990930517
 20
440.2908795595125
 30
0.0
 11
262.2036990930517
 21
438.0045661282169
 31
0.0
  0
LINE
  5
736
330
1F
100
AcDbEntity
  8
0
  6
Continuous
 62
     7
370
    25
100
AcDbLine
 10
263.4764911126877
 20
441.0256467524889
 30
0.0
 11
262.2036990930517
 21
440.2908795595125
 31
0.0
  0
LINE
  5
737
330
1F
100
AcDbEntity
  8
0
  6
Continuous
 62
     7
370
    25
100
AcDbLine
 10
257.4784259164048
 20
406.8611036076676
 30
0.0
 11
257.4784259164048
 21
413.6526453231414
 31
0.0
  0
LINE
  5
738
330
1F
100
AcDbEntity
  8
0
  6
Continuous
 62
     7
370
    25
100
AcDbLine
 10
257.4784259164048
 20
413.6526453231414
 30
0.0
 11
251.7968865158891
 21
410.3727624414938
 31
0.0
  0
LINE
  5
739
330
1F
100
AcDbEntity
  8
0
  6
Continuous
 62
     7
370
    25
100
AcDbLine
 10
251.7968865158891
 20
403.58122072602
 30
0.0
 11
251.7968865158891
 21
410.3727624414938
 31
0.0
  0
LINE
  5
73A
330
1F
100
AcDbEntity
  8
0
  6
Continuous
 62
     7
370
    25
100
AcDbLine
 10
245.7988213196063
 20
400.1186113919179
 30
0.0
 11
251.7968865158891
 21
403.58122072602
 31
0.0
  0
LINE
  5
73B
330
1F
100
AcDbEntity
  8
0
  6
Continuous
 62
     7
370
    25
100
AcDbLine
 10
245.7988213196063
 20
430.8205452026372
 30
0.0
 11
245.7988213196063
 21
400.1186113919179
 31
0.0
  0
LINE
  5
73C
330
1F
100
AcDbEntity
  8
0
  6
Continuous
 62
     7
370
    25
100
AcDbLine
 10
247.0716133392423
 20
431.5553123956136
 30
0.0
 11
245.7988213196063
 21
430.8205452026372
 31
0.0
  0
LINE
  5
73D
330
1F
100
AcDbEntity
  8
0
  6
Continuous
 62
     7
370
    25
100
AcDbLine
 10
247.0716133392423
 20
429.268998964318
 30
0.0
 11
247.0716133392423
 21
431.5553123956136
 31
0.0
  0
LINE
  5
73E
330
1F
100
AcDbEntity
  8
0
  6
Continuous
 62
     7
370
    25
100
AcDbLine
 10
248.2029842428779
 20
429.922125484798
 30
0.0
 11
247.0716133392423
 21
429.268998964318
 31
0.0
  0
ARC
  5
73F
330
1F
100
AcDbEntity
  8
0
  6
Continuous
 62
     7
370
    25
100
AcDbCircle
 10
248.2581902392948
 20
429.8544423780565
 30
0.0
 40
0.0873424580519257
100
AcDbArc
 50
350.7871677798608
 51
129.2025425586372
  0
LINE
  5
740
330
1F
100
AcDbEntity
  8
0
  6
Continuous
 62
     7
370
    25
100
AcDbLine
 10
248.3444060174228
 20
424.4201833491578
 30
0.0
 11
248.3444060174228
 21
429.8404586525038
 31
0.0
  0
LINE
  5
741
330
1F
100
AcDbEntity
  8
0
  6
Continuous
 62
     7
370
    25
100
AcDbLine
 10
251.0045609960154
 20
425.9558581305426
 30
0.0
 11
248.3444060174228
 21
424.4201833491578
 31
0.0
  0
ELLIPSE
  5
742
330
1F
100
AcDbEntity
  8
0
  6
Continuous
 62
     7
370
    25
100
AcDbEllipse
 10
251.0043887512169
 20
425.7923510324425
 30
0.0
 11
0.100113764770299
 21
0.1734208491336062
 31
0.0
210
0.0
220
0.0
230
1.0
 40
0.576678736737615
 41
5.498315064856009
 42
7.06789341647892
  0
LINE
  5
743
330
1F
100
AcDbEntity
  8
0
  6
Continuous
 62
     7
370
    25
100
AcDbLine
 10
251.1458961719575
 20
423.7822402127798
 30
0.0
 11
251.1458961719575
 21
425.8742401661149
 31
0.0
  0
LWPOLYLINE
  5
744
330
1F
100
AcDbEntity
  8
0
  6
Continuous
 62
     7
370
    25
100
AcDbPolyline
 90
       19
 70
   128
 43
0.0
 10
262.3451202090521
 20
422.8439654196522
 10
262.2513039584448
 20
423.4042079951361
 10
261.9811709769037
 20
423.7885587401319
 10
261.5673027539615
 20
423.9506602016522
 10
261.0596182804119
 20
423.8709592365612
 10
260.5193523173301
 20
423.5590703348159
 10
260.0116678437806
 20
423.0526112835133
 10
259.5977996208382
 20
422.4126677429385
 10
259.3276666392972
 20
421.7164280961974
 10
259.23385038869
 20
421.0478675833746
 10
259.3276666392972
 20
420.4876250078907
 10
259.5977996208382
 20
420.103273502432
 10
260.0116678437806
 20
419.9411728013746
 10
260.5193523173301
 20
420.0208730060027
 10
261.0596182804119
 20
420.3327619077479
 10
261.5673027539615
 20
420.8392217195134
 10
261.9811709769037
 20
421.4791644996254
 10
262.2513039584448
 20
422.1754049068293
 10
262.3451202090521
 20
422.8439654196522
  0
LWPOLYLINE
  5
745
330
1F
100
AcDbEntity
  8
0
  6
Continuous
 62
     7
370
    25
100
AcDbPolyline
 90
       19
 70
   128
 43
0.0
 10
250.041462043604
 20
413.5640642428489
 10
249.9476457929968
 20
414.1243075787958
 10
249.6775128114558
 20
414.5086583237916
 10
249.2636445885134
 20
414.6707597853118
 10
248.7559601149638
 20
414.5910595806838
 10
248.2156941518821
 20
414.2791706789385
 10
247.7080096783324
 20
413.772710867173
 10
247.2941414553902
 20
413.1327673265982
 10
247.0240084738492
 20
412.4365276798571
 10
246.930192223242
 20
411.7679664065714
 10
247.0240084738492
 20
411.2077245915503
 10
247.2941414553902
 20
410.8233738465545
 10
247.7080096783324
 20
410.6612723850343
 10
248.2156941518821
 20
410.7409725896623
 10
248.7559601149638
 20
411.0528614914076
 10
249.2636445885134
 20
411.5593213031731
 10
249.6775128114558
 20
412.1992648437479
 10
249.9476457929968
 20
412.895504490489
 10
250.041462043604
 20
413.5640642428489
  0
LINE
  5
746
330
1F
100
AcDbEntity
  8
0
  6
Continuous
 62
     7
370
    25
100
AcDbLine
 10
264.5371510570228
 20
440.5766221449157
 30
0.0
 11
263.7593335916425
 21
441.0256466099253
 31
0.0
  0
LINE
  5
747
330
1F
100
AcDbEntity
  8
0
  6
Continuous
 62
     7
370
    25
100
AcDbLine
 10
264.5371510570228
 20
409.8746883341965
 30
0.0
 11
264.5371510570228
 21
440.5766221449157
 31
0.0
  0
LINE
  5
748
330
1F
100
AcDbEntity
  8
0
  6
Continuous
 62
     7
370
    25
100
AcDbLine
 10
258.1731902488496
 20
406.2824662582528
 30
0.0
 11
252.5163357306711
 21
403.0168336558527
 31
0.0
  0
LINE
  5
749
330
1F
100
AcDbEntity
  8
0
  6
Continuous
 62
     7
370
    25
100
AcDbLine
 10
258.1731902488496
 20
406.2824662582528
 30
0.0
 11
257.6173787252712
 21
406.6147295684142
 31
0.0
  0
LINE
  5
74A
330
1F
100
AcDbEntity
  8
0
  6
Continuous
 62
     7
370
    25
100
AcDbLine
 10
264.5371512936872
 20
409.5480986943286
 30
0.0
 11
264.3957299410225
 21
409.6297395034485
 31
0.0
  0
LINE
  5
74B
330
1F
100
AcDbEntity
  8
0
  6
Continuous
 62
     7
370
    25
100
AcDbLine
 10
264.5371512936872
 20
409.5480986943286
 30
0.0
 11
246.8594815006057
 21
399.3429971444769
 31
0.0
  0
LINE
  5
74C
330
1F
100
AcDbEntity
  8
0
  6
Continuous
 62
     7
370
    25
100
AcDbLine
 10
246.718060147941
 20
399.4246379535967
 30
0.0
 11
246.8594815006057
 21
399.3429971444769
 31
0.0
  0
LINE
  5
74D
330
1F
100
AcDbEntity
  8
0
  6
Continuous
 62
     7
370
    25
100
AcDbLine
 10
245.9402426825608
 20
399.8736624186063
 30
0.0
 11
246.718060147941
 21
399.4246379535967
 31
0.0
  0
LINE
  5
74E
330
1F
100
AcDbEntity
  8
0
  6
Continuous
 62
     7
370
    25
100
AcDbLine
 10
251.9407764329318
 20
403.3376968186501
 30
0.0
 11
245.9402426825608
 21
399.8736624186063
 31
0.0
  0
LINE
  5
74F
330
1F
100
AcDbEntity
  8
0
  6
Continuous
 62
     7
370
    25
100
AcDbLine
 10
252.5163357306711
 20
403.0168336558527
 30
0.0
 11
251.9407764329318
 21
403.3376968186501
 31
0.0
  0
LINE
  5
750
330
1F
100
AcDbEntity
  8
0
  6
Continuous
 62
     7
370
    25
100
AcDbLine
 10
264.5371512936872
 20
409.5480986943286
 30
0.0
 11
264.5371512936872
 21
409.8746884896885
 31
0.0
  0
LINE
  5
751
330
1F
100
AcDbEntity
  8
0
  6
Continuous
 62
     7
370
    25
100
AcDbLine
 10
264.5371512936872
 20
440.5766242134472
 30
0.0
 11
264.5371512936872
 21
440.5766485482598
 31
0.0
  0
LINE
  5
752
330
1F
100
AcDbEntity
  8
0
  6
Continuous
 62
     7
370
    25
100
AcDbLine
 10
257.5220242793293
 20
406.7162537175847
 30
0.0
 11
252.3064963266258
 21
403.7053935184502
 31
0.0
  0
LINE
  5
753
330
1F
100
AcDbEntity
  8
0
  6
Continuous
 62
     7
370
    25
100
AcDbLine
 10
252.3064963266258
 20
403.7053935184502
 30
0.0
 11
252.5163357306711
 21
403.0168336558527
 31
0.0
  0
LINE
  5
754
330
1F
100
AcDbEntity
  8
0
  6
Continuous
 62
     7
370
    25
100
AcDbLine
 10
257.4784259987231
 20
407.0951983683913
 30
0.0
 11
252.3064963266258
 21
404.109506920919
 31
0.0
  0
LINE
  5
755
330
1F
100
AcDbEntity
  8
0
  6
Continuous
 62
     7
370
    25
100
AcDbLine
 10
252.3064963266258
 20
404.109506920919
 30
0.0
 11
252.3064963266258
 21
403.7053935184502
 31
0.0
  0
LINE
  5
756
330
1F
100
AcDbEntity
  8
0
  6
Continuous
 62
     7
370
    25
100
AcDbLine
 10
257.4784259987231
 20
407.6709339867257
 30
0.0
 11
252.3064963266258
 21
404.6852425392534
 31
0.0
  0
LINE
  5
757
330
1F
100
AcDbEntity
  8
0
  6
Continuous
 62
     7
370
    25
100
AcDbLine
 10
252.3064963266258
 20
404.6852425392534
 30
0.0
 11
252.4557027146404
 21
404.1956419366529
 31
0.0
  0
LINE
  5
758
330
1F
100
AcDbEntity
  8
0
  6
Continuous
 62
     7
370
    25
100
AcDbLine
 10
257.4784259987231
 20
408.0750473891946
 30
0.0
 11
252.3064963266258
 21
405.0893559417223
 31
0.0
  0
LINE
  5
759
330
1F
100
AcDbEntity
  8
0
  6
Continuous
 62
     7
370
    25
100
AcDbLine
 10
252.3064963266258
 20
405.0893559417223
 30
0.0
 11
252.3064963266258
 21
404.6852425392534
 31
0.0
  0
LINE
  5
75A
330
1F
100
AcDbEntity
  8
0
  6
Continuous
 62
     7
370
    25
100
AcDbLine
 10
257.4784259987231
 20
408.650783007529
 30
0.0
 11
252.3064963266258
 21
405.6650915600567
 31
0.0
  0
LINE
  5
75B
330
1F
100
AcDbEntity
  8
0
  6
Continuous
 62
     7
370
    25
100
AcDbLine
 10
252.3064963266258
 20
405.6650915600567
 30
0.0
 11
252.4557027146404
 21
405.1754909574561
 31
0.0
  0
LINE
  5
75C
330
1F
100
AcDbEntity
  8
0
  6
Continuous
 62
     7
370
    25
100
AcDbLine
 10
257.4784259987231
 20
409.0548962198821
 30
0.0
 11
252.3064963266258
 21
406.0692047724098
 31
0.0
  0
LINE
  5
75D
330
1F
100
AcDbEntity
  8
0
  6
Continuous
 62
     7
370
    25
100
AcDbLine
 10
252.3064963266258
 20
406.0692047724098
 30
0.0
 11
252.3064963266258
 21
405.6650915600567
 31
0.0
  0
LINE
  5
75E
330
1F
100
AcDbEntity
  8
0
  6
Continuous
 62
     7
370
    25
100
AcDbLine
 10
257.4784259987231
 20
409.6306320283321
 30
0.0
 11
252.3064963266258
 21
406.6449405808599
 31
0.0
  0
LINE
  5
75F
330
1F
100
AcDbEntity
  8
0
  6
Continuous
 62
     7
370
    25
100
AcDbLine
 10
252.3064963266258
 20
406.6449405808599
 30
0.0
 11
252.4557027146404
 21
406.1553397881436
 31
0.0
  0
LINE
  5
760
330
1F
100
AcDbEntity
  8
0
  6
Continuous
 62
     7
370
    25
100
AcDbLine
 10
257.4784259987231
 20
410.034745430801
 30
0.0
 11
252.3064963266258
 21
407.0490539833287
 31
0.0
  0
LINE
  5
761
330
1F
100
AcDbEntity
  8
0
  6
Continuous
 62
     7
370
    25
100
AcDbLine
 10
252.3064963266258
 20
407.0490539833287
 30
0.0
 11
252.3064963266258
 21
406.6449405808599
 31
0.0
  0
LINE
  5
762
330
1F
100
AcDbEntity
  8
0
  6
Continuous
 62
     7
370
    25
100
AcDbLine
 10
257.4784259987231
 20
410.6104808590197
 30
0.0
 11
252.3064963266258
 21
407.6247894115474
 31
0.0
  0
LINE
  5
763
330
1F
100
AcDbEntity
  8
0
  6
Continuous
 62
     7
370
    25
100
AcDbLine
 10
252.3064963266258
 20
407.6247894115474
 30
0.0
 11
252.4557027146404
 21
407.1351888089468
 31
0.0
  0
LINE
  5
764
330
1F
100
AcDbEntity
  8
0
  6
Continuous
 62
     7
370
    25
100
AcDbLine
 10
257.4784259987231
 20
411.0145942614885
 30
0.0
 11
252.3064963266258
 21
408.0289028140162
 31
0.0
  0
LINE
  5
765
330
1F
100
AcDbEntity
  8
0
  6
Continuous
 62
     7
370
    25
100
AcDbLine
 10
252.3064963266258
 20
408.0289028140162
 30
0.0
 11
252.3064963266258
 21
407.6247894115474
 31
0.0
  0
LINE
  5
766
330
1F
100
AcDbEntity
  8
0
  6
Continuous
 62
     7
370
    25
100
AcDbLine
 10
257.4784259987231
 20
411.5903296897072
 30
0.0
 11
252.3064963266258
 21
408.6046382422349
 31
0.0
  0
LINE
  5
767
330
1F
100
AcDbEntity
  8
0
  6
Continuous
 62
     7
370
    25
100
AcDbLine
 10
252.3064963266258
 20
408.6046382422349
 30
0.0
 11
252.4557027146404
 21
408.1150376396343
 31
0.0
  0
LINE
  5
768
330
1F
100
AcDbEntity
  8
0
  6
Continuous
 62
     7
370
    25
100
AcDbLine
 10
257.4784259987231
 20
411.994443092176
 30
0.0
 11
252.3064963266258
 21
409.0087516447037
 31
0.0
  0
LINE
  5
769
330
1F
100
AcDbEntity
  8
0
  6
Continuous
 62
     7
370
    25
100
AcDbLine
 10
252.3064963266258
 20
409.0087516447037
 30
0.0
 11
252.3064963266258
 21
408.6046382422349
 31
0.0
  0
LINE
  5
76A
330
1F
100
AcDbEntity
  8
0
  6
Continuous
 62
     7
370
    25
100
AcDbLine
 10
251.7968865158891
 20
410.3727624414938
 30
0.0
 11
252.5163357306711
 21
409.9574309340712
 31
0.0
  0
LINE
  5
76B
330
1F
100
AcDbEntity
  8
0
  6
Continuous
 62
     7
370
    25
100
AcDbLine
 10
252.5163357306711
 20
409.9574309340712
 30
0.0
 11
252.5163357306711
 21
409.1298895123912
 31
0.0
  0
ELLIPSE
  5
76C
330
1F
100
AcDbEntity
  8
0
  6
Continuous
 62
     7
370
    25
100
AcDbEllipse
 10
251.9407763810362
 20
403.5010049481793
 30
0.0
 11
-0.1026525863727556
 21
0.1716643463722676
 31
0.0
210
0.0
220
0.0
230
1.0
 40
0.5873687162544591
 41
0.7764427606539486
 42
2.347239087449917
  0
ARC
  5
76D
330
1F
100
AcDbEntity
  8
0
  6
Continuous
 62
     7
370
    25
100
AcDbCircle
 10
246.1058645980614
 20
400.132583600765
 30
0.0
 40
0.3073610213812044
100
AcDbArc
 50
182.6054851425027
 51
237.3945174101555
  0
LINE
  5
76E
330
1F
100
AcDbEntity
  8
0
  6
Continuous
 62
     7
370
    25
100
AcDbLine
 10
257.4784259575638
 20
412.8219846483162
 30
0.0
 11
252.5163357306711
 21
409.9574309340712
 31
0.0
  0
ARC
  5
76F
330
1F
100
AcDbEntity
  8
0
  6
Continuous
 62
     7
370
    25
100
AcDbCircle
 10
246.6594767189067
 20
399.5064126350097
 30
0.0
 40
0.1005938202754376
100
AcDbArc
 50
245.692380463992
 51
305.6178335840613
  0
ARC
  5
770
330
1F
100
AcDbEntity
  8
0
  6
Continuous
 62
     7
370
    25
100
AcDbCircle
 10
262.2976881726084
 20
440.3035128039043
 30
0.0
 40
0.0948343078203566
100
AcDbArc
 50
123.657355929414
 51
187.6553488419095
  0
ARC
  5
771
330
1F
100
AcDbEntity
  8
0
  6
Continuous
 62
     7
370
    25
100
AcDbCircle
 10
264.4419837460688
 20
440.5887221374048
 30
0.0
 40
0.0959334503312375
100
AcDbArc
 50
352.7540398238765
 51
55.93347109226874
  0
LINE
  5
772
330
1F
100
AcDbEntity
  8
0
  6
Continuous
 62
     7
370
    25
100
AcDbLine
 10
249.4050661984221
 20
429.2281525633143
 30
0.0
 11
248.3444060174228
 21
429.8404586525038
 31
0.0
  0
LINE
  5
773
330
1F
100
AcDbEntity
  8
0
  6
Continuous
 62
     7
370
    25
100
AcDbLine
 10
249.4050661984221
 20
425.0324901977446
 30
0.0
 11
249.4050661984221
 21
429.2281525633143
 31
0.0
  0
ARC
  5
774
330
1F
100
AcDbEntity
  8
0
  6
Continuous
 62
     7
370
    25
100
AcDbCircle
 10
249.3070645242495
 20
429.2389675024809
 30
0.0
 40
0.0985966076992727
100
AcDbArc
 50
353.7026260116294
 51
54.98631455030219
  0
ARC
  5
775
330
1F
100
AcDbEntity
  8
0
  6
Continuous
 62
     7
370
    25
100
AcDbCircle
 10
247.1578271758059
 20
431.5692994020292
 30
0.0
 40
0.0873410668786025
100
AcDbArc
 50
50.79541784795769
 51
189.2151606215638
  0
LINE
  5
776
330
1F
100
AcDbEntity
  8
0
  6
Continuous
 62
     7
370
    25
100
AcDbLine
 10
247.2130347021967
 20
431.6369794655139
 30
0.0
 11
248.1322735202417
 21
431.1063141913845
 31
0.0
  0
ARC
  5
777
330
1F
100
AcDbEntity
  8
0
  6
Continuous
 62
     7
370
    25
100
AcDbCircle
 10
248.0411370166375
 20
411.6698981297479
 30
0.0
 40
0.9163728724884274
100
AcDbArc
 50
243.1554817504582
 51
304.3702044266373
  0
ARC
  5
778
330
1F
100
AcDbEntity
  8
0
  6
Continuous
 62
     7
370
    25
100
AcDbCircle
 10
249.0893528106073
 20
413.5311514856996
 30
0.0
 40
0.9518264828086013
100
AcDbArc
 50
356.8895739738392
 51
55.5953333894276
  0
LWPOLYLINE
  5
779
330
1F
100
AcDbEntity
  8
0
  6
Continuous
 62
     7
370
    25
100
AcDbPolyline
 90
       18
 70
   128
 43
0.0
 10
248.4858271334228
 20
411.0329349541815
 10
247.9749546459103
 20
410.8482923104029
 10
247.5330778664988
 20
410.9091441881724
 10
247.2198754155914
 20
411.2072712279714
 10
247.0776462654798
 20
411.7024086541379
 10
247.1256001594621
 20
412.3276879226012
 10
247.3572603123023
 20
412.9986590963357
 10
247.7413399329705
 20
413.6247064518053
 10
248.2259661291175
 20
414.1212770863749
 10
248.7456881377285
 20
414.4213062156463
 10
249.2303146631477
 20
414.4842732671425
 10
249.6143939545437
 20
414.3016746125365
 10
249.8460541073839
 20
413.898172558031
 10
249.8940080013661
 20
413.328259677053
 10
249.7517791805267
 20
412.6689081596518
 10
249.4385767296193
 20
412.0091652672448
 10
248.9967002794801
 20
411.4381335095398
 10
248.4858271334228
 20
411.0329349541815
  0
LINE
  5
77A
330
1F
100
AcDbEntity
  8
0
  6
Continuous
 62
     7
370
    25
100
AcDbLine
 10
248.6696749793501
 20
413.6703433152646
 30
0.0
 11
248.3019792874958
 21
413.4580771105705
 31
0.0
  0
LINE
  5
77B
330
1F
100
AcDbEntity
  8
0
  6
Continuous
 62
     7
370
    25
100
AcDbLine
 10
248.3019792874958
 20
413.4580771105705
 30
0.0
 11
248.3019792874958
 21
413.0963659782208
 31
0.0
  0
ELLIPSE
  5
77C
330
1F
100
AcDbEntity
  8
0
  6
Continuous
 62
     7
370
    25
100
AcDbEllipse
 10
248.0170126540575
 20
412.9367448760206
 30
0.0
 11
0.1999830001077498
 21
0.3464199758967652
 31
0.0
210
0.0
220
0.0
230
1.0
 40
0.5860215324408652
 41
3.934333415640071
 42
5.490277059489141
  0
LINE
  5
77D
330
1F
100
AcDbEntity
  8
0
  6
Continuous
 62
     7
370
    25
100
AcDbLine
 10
248.0212450564654
 20
412.6101192676164
 30
0.0
 11
247.7080096783324
 21
412.4292923328297
 31
0.0
  0
LINE
  5
77E
330
1F
100
AcDbEntity
  8
0
  6
Continuous
 62
     7
370
    25
100
AcDbLine
 10
247.7080096783324
 20
412.4292923328297
 30
0.0
 11
247.7080096783324
 21
412.0046909193775
 31
0.0
  0
LINE
  5
77F
330
1F
100
AcDbEntity
  8
0
  6
Continuous
 62
     7
370
    25
100
AcDbLine
 10
247.7080096783324
 20
412.0046909193775
 30
0.0
 11
248.0212450564654
 21
412.1855178541642
 31
0.0
  0
ELLIPSE
  5
780
330
1F
100
AcDbEntity
  8
0
  6
Continuous
 62
     7
370
    25
100
AcDbEllipse
 10
248.0170126540575
 20
411.8540053411496
 30
0.0
 11
0.2029770344754525
 21
0.3516029848150879
 31
0.0
210
0.0
220
0.0
230
1.0
 40
0.5688689412911379
 41
5.505134574337467
 42
7.061078218187497
  0
LINE
  5
781
330
1F
100
AcDbEntity
  8
0
  6
Continuous
 62
     7
370
    25
100
AcDbLine
 10
248.3019792874958
 20
412.0233999874311
 30
0.0
 11
248.3019792874958
 21
411.6616873341557
 31
0.0
  0
LINE
  5
782
330
1F
100
AcDbEntity
  8
0
  6
Continuous
 62
     7
370
    25
100
AcDbLine
 10
248.3019792874958
 20
411.6616873341557
 30
0.0
 11
248.6696749793501
 21
411.8739535388499
 31
0.0
  0
LINE
  5
783
330
1F
100
AcDbEntity
  8
0
  6
Continuous
 62
     7
370
    25
100
AcDbLine
 10
248.6696749793501
 20
411.8739535388499
 30
0.0
 11
248.6696749793501
 21
412.2356661921253
 31
0.0
  0
ELLIPSE
  5
784
330
1F
100
AcDbEntity
  8
0
  6
Continuous
 62
     7
370
    25
100
AcDbEllipse
 10
248.9546418040297
 20
412.3952871279217
 30
0.0
 11
0.1999830001077498
 21
0.3464199758967652
 31
0.0
210
0.0
220
0.0
230
1.0
 40
0.5860215324407941
 41
0.7927407620495394
 42
2.348684405899163
  0
LINE
  5
785
330
1F
100
AcDbEntity
  8
0
  6
Continuous
 62
     7
370
    25
100
AcDbLine
 10
248.9504092103805
 20
412.7219129027297
 30
0.0
 11
249.2636445885134
 21
412.9027398375163
 31
0.0
  0
LINE
  5
786
330
1F
100
AcDbEntity
  8
0
  6
Continuous
 62
     7
370
    25
100
AcDbLine
 10
249.2636445885134
 20
412.9027398375163
 30
0.0
 11
249.2636445885134
 21
413.3273412509686
 31
0.0
  0
LINE
  5
787
330
1F
100
AcDbEntity
  8
0
  6
Continuous
 62
     7
370
    25
100
AcDbLine
 10
249.2636445885134
 20
413.3273412509686
 30
0.0
 11
248.9504092103805
 21
413.1465143161819
 31
0.0
  0
ELLIPSE
  5
788
330
1F
100
AcDbEntity
  8
0
  6
Continuous
 62
     7
370
    25
100
AcDbEllipse
 10
248.9546418040297
 20
413.4780266627928
 30
0.0
 11
0.2029770344756799
 21
0.3516029848150879
 31
0.0
210
0.0
220
0.0
230
1.0
 40
0.5688689412909085
 41
2.363541920748354
 42
3.91948556459887
  0
LINE
  5
789
330
1F
100
AcDbEntity
  8
0
  6
Continuous
 62
     7
370
    25
100
AcDbLine
 10
248.6696749793501
 20
413.308632182915
 30
0.0
 11
248.6696749793501
 21
413.6703433152646
 31
0.0
  0
LINE
  5
78A
330
1F
100
AcDbEntity
  8
0
  6
Continuous
 62
     7
370
    25
100
AcDbLine
 10
248.6763134372628
 20
413.2419724442338
 30
0.0
 11
248.3019792874958
 21
413.4580771105705
 31
0.0
  0
LINE
  5
78B
330
1F
100
AcDbEntity
  8
0
  6
Continuous
 62
     7
370
    25
100
AcDbLine
 10
248.0824286157045
 20
412.2131371969944
 30
0.0
 11
247.7080096783324
 21
412.4292923328297
 31
0.0
  0
ARC
  5
78C
330
1F
100
AcDbEntity
  8
0
  6
Continuous
 62
     7
370
    25
100
AcDbCircle
 10
260.3447943913097
 20
420.9497910241461
 30
0.0
 40
0.9163664825701455
100
AcDbArc
 50
243.155334958766
 51
304.370537587344
  0
ARC
  5
78D
330
1F
100
AcDbEntity
  8
0
  6
Continuous
 62
     7
370
    25
100
AcDbCircle
 10
261.3930098934285
 20
422.8110521287875
 30
0.0
 40
0.9518275348812759
100
AcDbArc
 50
356.8896095899128
 51
55.59529777335274
  0
LWPOLYLINE
  5
78E
330
1F
100
AcDbEntity
  8
0
  6
Continuous
 62
     7
370
    25
100
AcDbPolyline
 90
       18
 70
   128
 43
0.0
 10
260.7894852988709
 20
420.312834610059
 10
260.2786121528138
 20
420.1281923465736
 10
259.8367357026748
 20
420.1890436539651
 10
259.5235332517671
 20
420.487170693764
 10
259.3813044309279
 20
420.9823090704782
 10
259.4292583249103
 20
421.6075883389415
 10
259.6609184777503
 20
422.2785602731389
 10
260.0449977691463
 20
422.9046066780608
 10
260.5296242945655
 20
423.4011775027152
 10
261.0493463031765
 20
423.7012066319867
 10
261.5339724993233
 20
423.764173493398
 10
261.9180521199916
 20
423.5815757893397
 10
262.1497122728318
 20
423.1780729743713
 10
262.1976661668141
 20
422.6081600933933
 10
262.0554370167026
 20
421.9488076254443
 10
261.742234565795
 20
421.2890647330374
 10
261.3003577863836
 20
420.7180335457106
 10
260.7894852988709
 20
420.312834610059
  0
LINE
  5
78F
330
1F
100
AcDbEntity
  8
0
  6
Continuous
 62
     7
370
    25
100
AcDbLine
 10
260.973333144798
 20
422.9502444920678
 30
0.0
 11
260.6056374529439
 21
422.7379782873737
 31
0.0
  0
LINE
  5
790
330
1F
100
AcDbEntity
  8
0
  6
Continuous
 62
     7
370
    25
100
AcDbLine
 10
260.6056374529439
 20
422.7379782873737
 30
0.0
 11
260.6056374529439
 21
422.3762656340982
 31
0.0
  0
ELLIPSE
  5
791
330
1F
100
AcDbEntity
  8
0
  6
Continuous
 62
     7
370
    25
100
AcDbEllipse
 10
260.3206706467035
 20
422.2166452351903
 30
0.0
 11
0.1999830001076361
 21
0.3464199758967653
 31
0.0
210
0.0
220
0.0
230
1.0
 40
0.5860215324411946
 41
3.934333415638707
 42
5.490277059489094
  0
LINE
  5
792
330
1F
100
AcDbEntity
  8
0
  6
Continuous
 62
     7
370
    25
100
AcDbLine
 10
260.3249032219134
 20
421.8900196839567
 30
0.0
 11
260.0116678437806
 21
421.70919274917
 31
0.0
  0
LINE
  5
793
330
1F
100
AcDbEntity
  8
0
  6
Continuous
 62
     7
370
    25
100
AcDbLine
 10
260.0116678437806
 20
421.70919274917
 30
0.0
 11
260.0116678437806
 21
421.2845913357179
 31
0.0
  0
LINE
  5
794
330
1F
100
AcDbEntity
  8
0
  6
Continuous
 62
     7
370
    25
100
AcDbLine
 10
260.0116678437806
 20
421.2845913357179
 30
0.0
 11
260.3249032219134
 21
421.4654182705045
 31
0.0
  0
ELLIPSE
  5
795
330
1F
100
AcDbEntity
  8
0
  6
Continuous
 62
     7
370
    25
100
AcDbEllipse
 10
260.3206706467035
 20
421.1339057003192
 30
0.0
 11
0.2029770344754525
 21
0.3516029848151447
 31
0.0
210
0.0
220
0.0
230
1.0
 40
0.5688689412913113
 41
5.505134574337729
 42
7.061078218187667
  0
LINE
  5
796
330
1F
100
AcDbEntity
  8
0
  6
Continuous
 62
     7
370
    25
100
AcDbLine
 10
260.6056374529439
 20
421.3033011642344
 30
0.0
 11
260.6056374529439
 21
420.941588510959
 31
0.0
  0
LINE
  5
797
330
1F
100
AcDbEntity
  8
0
  6
Continuous
 62
     7
370
    25
100
AcDbLine
 10
260.6056374529439
 20
420.941588510959
 30
0.0
 11
260.973333144798
 21
421.1538547156532
 31
0.0
  0
LINE
  5
798
330
1F
100
AcDbEntity
  8
0
  6
Continuous
 62
     7
370
    25
100
AcDbLine
 10
260.973333144798
 20
421.1538547156532
 30
0.0
 11
260.973333144798
 21
421.5155673689285
 31
0.0
  0
ELLIPSE
  5
799
330
1F
100
AcDbEntity
  8
0
  6
Continuous
 62
     7
370
    25
100
AcDbEllipse
 10
261.2582997966758
 20
421.6751874870915
 30
0.0
 11
0.1999830001075225
 21
0.3464199758967084
 31
0.0
210
0.0
220
0.0
230
1.0
 40
0.5860215324412791
 41
0.7927407620490424
 42
2.348684405899194
  0
LINE
  5
79A
330
1F
100
AcDbEntity
  8
0
  6
Continuous
 62
     7
370
    25
100
AcDbLine
 10
261.2540673758285
 20
422.00181331907
 30
0.0
 11
261.5673027539615
 21
422.1826402538567
 31
0.0
  0
LINE
  5
79B
330
1F
100
AcDbEntity
  8
0
  6
Continuous
 62
     7
370
    25
100
AcDbLine
 10
261.5673027539615
 20
422.1826402538567
 30
0.0
 11
261.5673027539615
 21
422.6072416673089
 31
0.0
  0
LINE
  5
79C
330
1F
100
AcDbEntity
  8
0
  6
Continuous
 62
     7
370
    25
100
AcDbLine
 10
261.5673027539615
 20
422.6072416673089
 30
0.0
 11
261.2540673758285
 21
422.4264147325223
 31
0.0
  0
ELLIPSE
  5
79D
330
1F
100
AcDbEntity
  8
0
  6
Continuous
 62
     7
370
    25
100
AcDbEllipse
 10
261.2582997966758
 20
422.7579270219625
 30
0.0
 11
0.2029770344754524
 21
0.351602984815031
 31
0.0
210
0.0
220
0.0
230
1.0
 40
0.5688689412916217
 41
2.363541920748373
 42
3.919485564597363
  0
LINE
  5
79E
330
1F
100
AcDbEntity
  8
0
  6
Continuous
 62
     7
370
    25
100
AcDbLine
 10
260.973333144798
 20
422.5885318387924
 30
0.0
 11
260.973333144798
 21
422.9502444920678
 31
0.0
  0
LINE
  5
79F
330
1F
100
AcDbEntity
  8
0
  6
Continuous
 62
     7
370
    25
100
AcDbLine
 10
260.9799709441663
 20
422.5218717199416
 30
0.0
 11
260.6056374529439
 21
422.7379782873737
 31
0.0
  0
LINE
  5
7A0
330
1F
100
AcDbEntity
  8
0
  6
Continuous
 62
     7
370
    25
100
AcDbLine
 10
260.3860864518805
 20
421.4930374232499
 30
0.0
 11
260.0116678437806
 21
421.70919274917
 31
0.0
  0
LINE
  5
7A1
330
1F
100
AcDbEntity
  8
0
  6
Continuous
 62
     8
370
    25
100
AcDbLine
 10
253.9314800070825
 20
425.3903246132607
 30
0.0
 11
249.4050657765421
 21
428.0033679283608
 31
0.0
  0
LINE
  5
7A2
330
1F
100
AcDbEntity
  8
0
  6
Continuous
 62
     8
370
    25
100
AcDbLine
 10
249.4050661984221
 20
428.329957675107
 30
0.0
 11
254.2143462759576
 21
425.553619382368
 31
0.0
  0
LINE
  5
7A3
330
1F
100
AcDbEntity
  8
0
  6
Continuous
 62
     8
370
    25
100
AcDbLine
 10
254.9922901715937
 20
426.0027168189327
 30
0.0
 11
249.4050661984221
 21
429.2281525633143
 31
0.0
  0
ARC
  5
7A4
330
1F
100
AcDbEntity
  8
0
  6
Continuous
 62
     8
370
    25
100
AcDbCircle
 10
245.8816592535264
 20
399.9554371000186
 30
0.0
 40
0.1005938202749955
100
AcDbArc
 50
245.6923804638131
 51
305.6178335843214
  0
ARC
  5
7A5
330
1F
100
AcDbEntity
  8
0
  6
Continuous
 62
     8
370
    25
100
AcDbCircle
 10
245.8403344213019
 20
400.0269891155275
 30
0.0
 40
0.1005881660204427
100
AcDbArc
 50
114.3747864209062
 51
174.305111931533
  0
ARC
  5
7A6
330
1F
100
AcDbEntity
  8
0
  6
Continuous
 62
     8
370
    25
100
AcDbCircle
 10
245.8403344213021
 20
430.7289229262467
 30
0.0
 40
0.1005881660206746
100
AcDbArc
 50
114.3747864209841
 51
174.3051119315137
  0
ARC
  5
7A7
330
1F
100
AcDbEntity
  8
0
  6
Continuous
 62
     8
370
    25
100
AcDbCircle
 10
263.5733432669376
 20
441.0369846424581
 30
0.0
 40
0.0975135248660059
100
AcDbArc
 50
124.6358271288033
 51
186.6768776424694
  0
ARC
  5
7A8
330
1F
100
AcDbEntity
  8
0
  6
Continuous
 62
     8
370
    25
100
AcDbCircle
 10
263.6641662804919
 20
441.0377466023256
 30
0.0
 40
0.0959334505150333
100
AcDbArc
 50
352.7540398912893
 51
55.93347102465748
  0
LINE
  5
7A9
330
1F
100
AcDbEntity
  8
0
  6
Continuous
 62
     8
370
    25
100
AcDbLine
 10
252.8355311835555
 20
424.7576460215825
 30
0.0
 11
251.1458961719575
 21
425.8742401661149
 31
0.0
  0
ARC
  5
7AA
330
1F
100
AcDbEntity
  8
0
  6
Continuous
 62
     8
370
    25
100
AcDbCircle
 10
245.8928103988997
 20
430.8331784471479
 30
0.0
 40
0.0948343075754416
100
AcDbArc
 50
123.6573558368226
 51
187.6553489343601
  0
LINE
  5
7AB
330
1F
100
AcDbEntity
  8
0
  6
Continuous
 62
     8
370
    25
100
AcDbLine
 10
248.9504092103805
 20
413.1465143161819
 30
0.0
 11
249.2377260053586
 21
412.8877775124695
 31
0.0
  0
LINE
  5
7AC
330
1F
100
AcDbEntity
  8
0
  6
Continuous
 62
     8
370
    25
100
AcDbLine
 10
248.6696747323958
 20
411.9039933470395
 30
0.0
 11
248.3019792874958
 21
412.0233999874311
 31
0.0
  0
LINE
  5
7AD
330
1F
100
AcDbEntity
  8
0
  6
Continuous
 62
     8
370
    25
100
AcDbLine
 10
248.6696753497812
 20
412.235775119587
 30
0.0
 11
248.0212450564654
 21
412.6101192676164
 31
0.0
  0
LINE
  5
7AE
330
1F
100
AcDbEntity
  8
0
  6
Continuous
 62
     8
370
    25
100
AcDbLine
 10
248.3019792874958
 20
413.0963659782208
 30
0.0
 11
248.9505030118139
 21
412.7219671313053
 31
0.0
  0
LINE
  5
7AF
330
1F
100
AcDbEntity
  8
0
  6
Continuous
 62
     8
370
    25
100
AcDbLine
 10
261.2540673758285
 20
422.4264147325223
 30
0.0
 11
261.5413841708067
 21
422.1676779288098
 31
0.0
  0
LINE
  5
7B0
330
1F
100
AcDbEntity
  8
0
  6
Continuous
 62
     8
370
    25
100
AcDbLine
 10
260.973332897844
 20
421.1838937633798
 30
0.0
 11
260.6056374529439
 21
421.3033011642344
 31
0.0
  0
LINE
  5
7B1
330
1F
100
AcDbEntity
  8
0
  6
Continuous
 62
     8
370
    25
100
AcDbLine
 10
260.9733328566849
 20
421.5156751557577
 30
0.0
 11
260.3249032219134
 21
421.8900196839567
 31
0.0
  0
LINE
  5
7B2
330
1F
100
AcDbEntity
  8
0
  6
Continuous
 62
     8
370
    25
100
AcDbLine
 10
260.6056374529439
 20
422.3762656340982
 30
0.0
 11
261.2541611772619
 21
422.0018675476456
 31
0.0
  0
ARC
  5
866
330
1F
100
AcDbEntity
  8
0
  6
HIDDEN
 62
     7
370
    25
100
AcDbCircle
 10
1105.499220284303
 20
-75.76566220879076
 30
0.0
 40
0.2000000000000692
100
AcDbArc
 50
299.9973117336571
 51
0.0
  0
LINE
  5
867
330
1F
100
AcDbEntity
  8
0
  6
HIDDEN
 62
     7
370
    25
100
AcDbLine
 10
1105.699220284303
 20
-75.76566220879076
 30
0.0
 11
1105.699220284303
 21
-45.06372768188655
 31
0.0
  0
LINE
  5
868
330
1F
100
AcDbEntity
  8
0
  6
HIDDEN
 62
     7
370
    25
100
AcDbLine
 10
1099.600423957943
 20
-79.40189869631362
 30
0.0
 11
1105.599212157567
 21
-75.93887198126694
 31
0.0
  0
LINE
  5
869
330
1F
100
AcDbEntity
  8
0
  6
HIDDEN
 62
     7
370
    25
100
AcDbLine
 10
1087.921542627903
 20
-86.14397337905072
 30
0.0
 11
1093.920330827527
 21
-82.68094666400393
 31
0.0
  0
LINE
  5
86A
330
1F
100
AcDbEntity
  8
0
  6
HIDDEN
 62
     7
370
    25
100
AcDbLine
 10
1086.943741422071
 20
-85.69494891754832
 30
0.0
 11
1087.721558881376
 21
-86.14397337905072
 31
0.0
  0
ARC
  5
86B
330
1F
100
AcDbEntity
  8
0
  6
HIDDEN
 62
     7
370
    25
100
AcDbCircle
 10
1087.82155075464
 20
-85.97076360657465
 30
0.0
 40
0.1999999999999708
100
AcDbArc
 50
240.0026882663266
 51
299.9973117336007
  0
LINE
  5
86C
330
1F
100
AcDbEntity
  8
0
  6
HIDDEN
 62
     7
370
    25
100
AcDbLine
 10
1105.599212157567
 20
-44.89051790941036
 30
0.0
 11
1104.821394698262
 21
-44.44149344790796
 31
0.0
  0
ARC
  5
86D
330
1F
100
AcDbEntity
  8
0
  6
HIDDEN
 62
     7
370
    25
100
AcDbCircle
 10
1105.499220284303
 20
-45.06372768188655
 30
0.0
 40
0.2000000000000692
100
AcDbArc
 50
0.0
 51
60.00268826634286
  0
LINE
  5
87B
330
1F
100
AcDbEntity
  8
0
  6
HIDDEN
 62
     7
370
    25
100
AcDbLine
 10
1086.902311939097
 20
-85.60340649626696
 30
0.0
 11
1104.579981468761
 21
-75.39830509848306
 31
0.0
  0
LINE
  5
87E
330
1F
100
AcDbEntity
  8
0
  6
HIDDEN
 62
     7
370
    25
100
AcDbLine
 10
1093.266272969776
 20
-82.33777404897612
 30
0.0
 11
1098.923127219268
 21
-79.07214160168527
 31
0.0
  0
LINE
  5
87F
330
1F
100
AcDbEntity
  8
0
  6
HIDDEN
 62
     7
370
    25
100
AcDbLine
 10
1093.266272969776
 20
-82.33777404897612
 30
0.0
 11
1093.822084318904
 21
-82.67003747634519
 31
0.0
  0
LINE
  5
880
330
1F
100
AcDbEntity
  8
0
  6
HIDDEN
 62
     7
370
    25
100
AcDbLine
 10
1087.82155075464
 20
-86.13407176895177
 30
0.0
 11
1093.822084318904
 21
-82.67003747634519
 31
0.0
  0
LINE
  5
881
330
1F
100
AcDbEntity
  8
0
  6
HIDDEN
 62
     7
370
    25
100
AcDbLine
 10
1087.043733295334
 20
-85.68504730744925
 30
0.0
 11
1087.82155075464
 21
-86.13407176895177
 31
0.0
  0
LINE
  5
882
330
1F
100
AcDbEntity
  8
0
  6
HIDDEN
 62
     7
370
    25
100
AcDbLine
 10
1086.902311939097
 20
-85.60340649626696
 30
0.0
 11
1087.043733295334
 21
-85.68504730744925
 31
0.0
  0
LINE
  5
883
330
1F
100
AcDbEntity
  8
0
  6
HIDDEN
 62
     7
370
    25
100
AcDbLine
 10
1104.721402824998
 20
-75.47994590966547
 30
0.0
 11
1104.579981468761
 21
-75.39830509848306
 31
0.0
  0
LINE
  5
884
330
1F
100
AcDbEntity
  8
0
  6
HIDDEN
 62
     7
370
    25
100
AcDbLine
 10
1105.499220284303
 20
-75.92897037116788
 30
0.0
 11
1104.721402824998
 21
-75.47994590966547
 31
0.0
  0
LINE
  5
885
330
1F
100
AcDbEntity
  8
0
  6
HIDDEN
 62
     7
370
    25
100
AcDbLine
 10
1099.498686720039
 20
-79.39300466377446
 30
0.0
 11
1105.499220284303
 21
-75.92897037116788
 31
0.0
  0
LINE
  5
886
330
1F
100
AcDbEntity
  8
0
  6
HIDDEN
 62
     7
370
    25
100
AcDbLine
 10
1098.923127219268
 20
-79.07214160168527
 30
0.0
 11
1099.498686720039
 21
-79.39300466377446
 31
0.0
  0
LINE
  5
887
330
1F
100
AcDbEntity
  8
0
  6
HIDDEN
 62
     7
370
    25
100
AcDbLine
 10
1104.721402824998
 20
-44.45139505800691
 30
0.0
 11
1104.721402824998
 21
-75.47994590966547
 31
0.0
  0
ARC
  5
889
330
1F
100
AcDbEntity
  8
0
  6
HIDDEN
 62
     7
370
    25
100
AcDbCircle
 10
1105.333598420267
 20
-75.67004922715634
 30
0.0
 40
0.3073609615145252
100
AcDbArc
 50
302.6054783400187
 51
357.3945215143469
  0
ARC
  5
88A
330
1F
100
AcDbEntity
  8
0
  6
HIDDEN
 62
     7
370
    25
100
AcDbCircle
 10
1104.555780960961
 20
-75.2210247656536
 30
0.0
 40
0.30736096151502
100
AcDbArc
 50
302.6054783401073
 51
357.3945215142872
  0
LINE
  5
88B
330
1F
100
AcDbEntity
  8
0
  6
HIDDEN
 62
     7
370
    25
100
AcDbLine
 10
1104.862824181235
 20
-75.23499693610606
 30
0.0
 11
1105.640641640541
 21
-75.68402139760846
 31
0.0
  0
ARC
  5
88C
330
1F
100
AcDbEntity
  8
0
  6
HIDDEN
 62
     7
370
    25
100
AcDbCircle
 10
1104.77660930775
 20
-44.51907696982161
 30
0.0
 40
0.0873418394858325
100
AcDbArc
 50
350.7859630095621
 51
129.2032852356917
  0
LINE
  5
88D
330
1F
100
AcDbEntity
  8
0
  6
HIDDEN
 62
     7
370
    25
100
AcDbLine
 10
1104.862824181235
 20
-75.23499693610606
 30
0.0
 11
1104.862824181235
 21
-44.53306240920173
 31
0.0
  0
LINE
  5
88E
330
1F
100
AcDbEntity
  8
0
  6
HIDDEN
 62
     7
370
    25
100
AcDbLine
 10
1105.640641640541
 20
-44.98208687070425
 30
0.0
 11
1104.862824181235
 21
-44.53306240920173
 31
0.0
  0
LINE
  5
88F
330
1F
100
AcDbEntity
  8
0
  6
HIDDEN
 62
     7
370
    25
100
AcDbLine
 10
1105.640641640541
 20
-75.68402139760846
 30
0.0
 11
1105.640641640541
 21
-44.98208687070425
 31
0.0
  0
ELLIPSE
  5
890
330
1F
100
AcDbEntity
  8
0
  6
HIDDEN
 62
     7
370
    25
100
AcDbEllipse
 10
1099.498686720039
 20
-79.22969650139734
 30
0.0
 11
-0.1026525863727556
 21
0.1716643463722676
 31
0.0
210
0.0
220
0.0
230
1.0
 40
0.5873687162544591
 41
2.347239087449917
 42
3.132555986785546
  0
ELLIPSE
  5
891
330
1F
100
AcDbEntity
  8
0
  6
HIDDEN
 62
     7
370
    25
100
AcDbEllipse
 10
1093.822084318904
 20
-82.50672931396795
 30
0.0
 11
-0.09741494644117665
 21
0.1746892004040319
 31
0.0
210
0.0
220
0.0
230
1.0
 40
0.5672183927599661
 41
2.36470301310486
 42
3.935499339900137
  0
LINE
  5
892
330
1F
100
AcDbEntity
  8
0
  6
HIDDEN
 62
     7
370
    25
100
AcDbLine
 10
1093.961037156186
 20
-82.58979517081022
 30
0.0
 11
1093.961037156186
 21
-81.93669522136472
 31
0.0
  0
ARC
  5
893
330
1F
100
AcDbEntity
  8
0
  6
HIDDEN
 62
     7
370
    25
100
AcDbCircle
 10
1086.988526812582
 20
-85.61736539563466
 30
0.0
 40
0.0873418394856444
100
AcDbArc
 50
170.7859630093634
 51
309.2032852359546
  0
ARC
  5
89A
330
1F
100
AcDbEntity
  8
0
  6
HIDDEN
 62
     8
370
    25
100
AcDbCircle
 10
1105.557804295273
 20
-75.84719410534407
 30
0.0
 40
0.1005954471804915
100
AcDbArc
 50
234.3824225247857
 51
294.307119046036
  0
ARC
  5
89B
330
1F
100
AcDbEntity
  8
0
  6
HIDDEN
 62
     8
370
    25
100
AcDbCircle
 10
1105.599128871805
 20
-75.7756434841709
 30
0.0
 40
0.1005878556991955
100
AcDbArc
 50
5.694799251334946
 51
65.62534170625646
  0
ARC
  5
89C
330
1F
100
AcDbEntity
  8
0
  6
HIDDEN
 62
     8
370
    25
100
AcDbCircle
 10
1105.599128871805
 20
-45.07370895726669
 30
0.0
 40
0.1005878556991955
100
AcDbArc
 50
5.694799251338974
 51
65.62534170625646
  0
ARC
  5
89D
330
1F
100
AcDbEntity
  8
0
  6
HIDDEN
 62
     8
370
    25
100
AcDbCircle
 10
1087.880134765609
 20
-86.05229550312797
 30
0.0
 40
0.1005954471804326
100
AcDbArc
 50
234.3824225250623
 51
294.3071190461907
  0
ARC
  5
89E
330
1F
100
AcDbEntity
  8
0
  6
HIDDEN
 62
     8
370
    25
100
AcDbCircle
 10
1087.762966743669
 20
-86.05229550312785
 30
0.0
 40
0.1005954471805362
100
AcDbArc
 50
245.6928809539741
 51
305.617577475186
  0
ARC
  5
89F
330
1F
100
AcDbEntity
  8
0
  6
HIDDEN
 62
     8
370
    25
100
AcDbCircle
 10
1105.545504529427
 20
-44.96997406495402
 30
0.0
 40
0.0959051092184699
100
AcDbArc
 50
352.7441704144304
 51
55.94364919228678
  0
LINE
  5
8A2
330
1F
100
AcDbEntity
  8
0
  6
HIDDEN
 62
     7
370
    25
100
AcDbLine
 10
1105.599212157567
 20
-44.89051790941042
 30
0.0
 11
1104.821394698262
 21
-44.4414934479079
 31
0.0
  0
LINE
  5
8B9
330
1F
100
AcDbEntity
  8
0
  6
HIDDEN
 62
     7
370
    25
100
AcDbLine
 10
1105.64064164054
 20
-44.98208687070431
 30
0.0
 11
1104.862824181235
 21
-44.53306240920179
 31
0.0
  0
LINE
  5
8BA
330
1F
100
AcDbEntity
  8
0
  6
HIDDEN
 62
     7
370
    25
100
AcDbLine
 10
1105.64064164054
 20
-44.98208687070431
 30
0.0
 11
1105.64064164054
 21
-44.98206033069167
 31
0.0
  0
ARC
  5
8BC
330
1F
100
AcDbEntity
  8
0
  6
HIDDEN
 62
     7
370
    25
100
AcDbCircle
 10
1105.542641260276
 20
-44.97126952314076
 30
0.0
 40
0.0985955858058095
100
AcDbArc
 50
353.7011524145644
 51
54.98666719218763
  0
ARC
  5
8C5
330
1F
100
AcDbEntity
  8
0
  6
HIDDEN
 62
     8
370
    25
100
AcDbCircle
 10
1104.764823800735
 20
-44.52224506174477
 30
0.0
 40
0.0985955860282082
100
AcDbArc
 50
353.701152491121
 51
54.98666711543884
  0
ENDSEC
  0
SECTION
  2
OBJECTS
  0
DICTIONARY
  5
C
330
0
100
AcDbDictionary
281
     1
  3
ACAD_DETAILVIEWSTYLE
350
313
  3
ACAD_GROUP
350
D
  3
ACAD_LAYOUT
350
1A
  3
ACAD_MLINESTYLE
350
17
  3
ACAD_PLOTSETTINGS
350
19
  3
ACAD_PLOTSTYLENAME
350
E
  3
ACAD_SCALELIST
350
47
  3
ACAD_SECTIONVIEWSTYLE
350
314
  3
AcDbVariableDictionary
350
30E
  3
APPDATA
350
2E6
  3
DWGPROPS
350
90C
  0
DICTIONARY
  5
308
330
2
100
AcDbDictionary
280
     1
281
     1
  3
ACAD_LAYERSTATES
360
309
  0
DICTIONARY
  5
2E9
330
2E8
100
AcDbDictionary
280
     1
281
     1
  3
ADSK_XREC_LAYER_RECONCILED
360
2EA
  0
DICTIONARY
  5
313
102
{ACAD_REACTORS
330
C
102
}
330
C
100
AcDbDictionary
281
     1
  0
DICTIONARY
  5
D
102
{ACAD_REACTORS
330
C
102
}
330
C
100
AcDbDictionary
281
     1
  0
DICTIONARY
  5
1A
102
{ACAD_REACTORS
330
C
102
}
330
C
100
AcDbDictionary
281
     1
  3
Layout1
350
1E
  3
Layout2
350
26
  3
Model
350
22
  0
DICTIONARY
  5
17
102
{ACAD_REACTORS
330
C
102
}
330
C
100
AcDbDictionary
281
     1
  3
Standard
350
18
  0
DICTIONARY
  5
19
102
{ACAD_REACTORS
330
C
102
}
330
C
100
AcDbDictionary
281
     1
  0
ACDBDICTIONARYWDFLT
  5
E
102
{ACAD_REACTORS
330
C
102
}
330
C
100
AcDbDictionary
281
     1
  3
Normal
350
F
100
AcDbDictionaryWithDefault
340
F
  0
DICTIONARY
  5
47
102
{ACAD_REACTORS
330
C
102
}
330
C
100
AcDbDictionary
281
     1
  3
A0
350
48
  3
A1
350
49
  3
A2
350
4A
  3
A3
350
4B
  3
A4
350
4C
  3
A5
350
4D
  3
A6
350
4E
  3
A7
350
4F
  3
A8
350
50
  3
A9
350
51
  3
B0
350
52
  3
B1
350
53
  3
B2
350
54
  3
B3
350
55
  3
B4
350
56
  3
B5
350
57
  3
B6
350
58
  3
B7
350
59
  3
B8
350
5A
  3
B9
350
5B
  3
C0
350
5C
  3
C1
350
5D
  3
C2
350
5E
  3
C3
350
5F
  3
C4
350
60
  3
C5
350
61
  3
C6
350
62
  3
C7
350
63
  3
C8
350
64
  3
C9
350
65
  3
D0
350
66
  3
D1
350
67
  3
D2
350
68
  0
DICTIONARY
  5
314
102
{ACAD_REACTORS
330
C
102
}
330
C
100
AcDbDictionary
281
     1
  0
DICTIONARY
  5
30E
102
{ACAD_REACTORS
330
C
102
}
330
C
100
AcDbDictionary
281
     1
  0
DICTIONARY
  5
2E6
102
{ACAD_REACTORS
330
C
102
}
330
C
100
AcDbDictionary
281
     1
  0
XRECORD
  5
90C
102
{ACAD_REACTORS
330
C
102
}
330
C
100
AcDbXrecord
280
     1
  1
DWGPROPS COOKIE
  2

  3

  4

  6

  7

  8
ModuleX
  9

300
=
301
=
302
=
303
=
304
=
305
=
306
=
307
=
308
=
309
=
 40
0.0
 41
2458682.164137454
 42
2458737.188669907
  1

 90
        0
  0
DICTIONARY
  5
309
102
{ACAD_REACTORS
330
308
102
}
330
308
100
AcDbDictionary
281
     1
  0
XRECORD
  5
2EA
102
{ACAD_REACTORS
330
2E9
102
}
330
2E9
100
AcDbXrecord
280
     1
290
     1
  0
LAYOUT
  5
1E
102
{ACAD_REACTORS
330
1A
102
}
330
1A
100
AcDbPlotSettings
  1

  2
none_device
  4

  6

 40
0.0
 41
0.0
 42
0.0
 43
0.0
 44
0.0
 45
0.0
 46
0.0
 47
0.0
 48
0.0
 49
0.0
140
0.0
141
0.0
142
1.0
143
1.0
 70
   688
 72
     1
 73
     0
 74
     5
  7

 75
    16
147
1.0
148
0.0
149
0.0
100
AcDbLayout
  1
Layout1
 70
     1
 71
     1
 10
0.0
 20
0.0
 11
420.0
 21
297.0
 12
0.0
 22
0.0
 32
0.0
 14
1.000000000000000E+20
 24
1.000000000000000E+20
 34
1.000000000000000E+20
 15
-1.000000000000000E+20
 25
-1.000000000000000E+20
 35
-1.000000000000000E+20
146
0.0
 13
0.0
 23
0.0
 33
0.0
 16
1.0
 26
0.0
 36
0.0
 17
0.0
 27
1.0
 37
0.0
 76
     0
330
1B
  0
LAYOUT
  5
26
102
{ACAD_REACTORS
330
1A
102
}
330
1A
100
AcDbPlotSettings
  1

  2
none_device
  4

  6

 40
0.0
 41
0.0
 42
0.0
 43
0.0
 44
0.0
 45
0.0
 46
0.0
 47
0.0
 48
0.0
 49
0.0
140
0.0
141
0.0
142
1.0
143
1.0
 70
   688
 72
     1
 73
     0
 74
     5
  7

 75
    16
147
1.0
148
0.0
149
0.0
100
AcDbLayout
  1
Layout2
 70
     1
 71
     2
 10
0.0
 20
0.0
 11
0.0
 21
0.0
 12
0.0
 22
0.0
 32
0.0
 14
0.0
 24
0.0
 34
0.0
 15
0.0
 25
0.0
 35
0.0
146
0.0
 13
0.0
 23
0.0
 33
0.0
 16
1.0
 26
0.0
 36
0.0
 17
0.0
 27
1.0
 37
0.0
 76
     0
330
23
  0
LAYOUT
  5
22
102
{ACAD_REACTORS
330
1A
102
}
330
1A
100
AcDbPlotSettings
  1

  2
none_device
  4
Letter_(8.50_x_11.00_Inches)
  6

 40
6.35
 41
6.35
 42
6.35000508
 43
6.35000508
 44
215.9
 45
279.4
 46
0.0
 47
0.0
 48
0.0
 49
0.0
140
0.0
141
0.0
142
1.0
143
1.0
 70
  1712
 72
     1
 73
     0
 74
     0
  7

 75
     0
147
1.0
148
0.0
149
0.0
100
AcDbLayout
  1
Model
 70
     1
 71
     0
 10
0.0
 20
0.0
 11
1189.0
 21
841.0
 12
0.0
 22
0.0
 32
0.0
 14
245.7402427154863
 24
-123.7539681580245
 34
0.0
 15
1105.69922050314
 25
441.1440065802608
 35
0.0
146
0.0
 13
0.0
 23
0.0
 33
0.0
 16
1.0
 26
0.0
 36
0.0
 17
0.0
 27
1.0
 37
0.0
 76
     0
330
1F
331
29
  0
MLINESTYLE
  5
18
102
{ACAD_REACTORS
330
17
102
}
330
17
100
AcDbMlineStyle
  2
Standard
 70
     0
  3

 62
   256
 51
90.0
 52
90.0
 71
     2
 49
0.5
 62
   256
  6
BYLAYER
 49
-0.5
 62
   256
  6
BYLAYER
  0
ACDBPLACEHOLDER
  5
F
102
{ACAD_REACTORS
330
E
102
}
330
E
  0
SCALE
  5
48
102
{ACAD_REACTORS
330
47
102
}
330
47
100
AcDbScale
 70
     0
300
1:1
140
1.0
141
1.0
290
     1
  0
SCALE
  5
49
102
{ACAD_REACTORS
330
47
102
}
330
47
100
AcDbScale
 70
     0
300
1:2
140
1.0
141
2.0
290
     0
  0
SCALE
  5
4A
102
{ACAD_REACTORS
330
47
102
}
330
47
100
AcDbScale
 70
     0
300
1:4
140
1.0
141
4.0
290
     0
  0
SCALE
  5
4B
102
{ACAD_REACTORS
330
47
102
}
330
47
100
AcDbScale
 70
     0
300
1:5
140
1.0
141
5.0
290
     0
  0
SCALE
  5
4C
102
{ACAD_REACTORS
330
47
102
}
330
47
100
AcDbScale
 70
     0
300
1:8
140
1.0
141
8.0
290
     0
  0
SCALE
  5
4D
102
{ACAD_REACTORS
330
47
102
}
330
47
100
AcDbScale
 70
     0
300
1:10
140
1.0
141
10.0
290
     0
  0
SCALE
  5
4E
102
{ACAD_REACTORS
330
47
102
}
330
47
100
AcDbScale
 70
     0
300
1:16
140
1.0
141
16.0
290
     0
  0
SCALE
  5
4F
102
{ACAD_REACTORS
330
47
102
}
330
47
100
AcDbScale
 70
     0
300
1:20
140
1.0
141
20.0
290
     0
  0
SCALE
  5
50
102
{ACAD_REACTORS
330
47
102
}
330
47
100
AcDbScale
 70
     0
300
1:30
140
1.0
141
30.0
290
     0
  0
SCALE
  5
51
102
{ACAD_REACTORS
330
47
102
}
330
47
100
AcDbScale
 70
     0
300
1:40
140
1.0
141
40.0
290
     0
  0
SCALE
  5
52
102
{ACAD_REACTORS
330
47
102
}
330
47
100
AcDbScale
 70
     0
300
1:50
140
1.0
141
50.0
290
     0
  0
SCALE
  5
53
102
{ACAD_REACTORS
330
47
102
}
330
47
100
AcDbScale
 70
     0
300
1:100
140
1.0
141
100.0
290
     0
  0
SCALE
  5
54
102
{ACAD_REACTORS
330
47
102
}
330
47
100
AcDbScale
 70
     0
300
2:1
140
2.0
141
1.0
290
     0
  0
SCALE
  5
55
102
{ACAD_REACTORS
330
47
102
}
330
47
100
AcDbScale
 70
     0
300
4:1
140
4.0
141
1.0
290
     0
  0
SCALE
  5
56
102
{ACAD_REACTORS
330
47
102
}
330
47
100
AcDbScale
 70
     0
300
8:1
140
8.0
141
1.0
290
     0
  0
SCALE
  5
57
102
{ACAD_REACTORS
330
47
102
}
330
47
100
AcDbScale
 70
     0
300
10:1
140
10.0
141
1.0
290
     0
  0
SCALE
  5
58
102
{ACAD_REACTORS
330
47
102
}
330
47
100
AcDbScale
 70
     0
300
100:1
140
100.0
141
1.0
290
     0
  0
SCALE
  5
59
102
{ACAD_REACTORS
330
47
102
}
330
47
100
AcDbScale
 70
     0
300
1/128" = 1'-0"
140
0.0078125
141
12.0
290
     0
  0
SCALE
  5
5A
102
{ACAD_REACTORS
330
47
102
}
330
47
100
AcDbScale
 70
     0
300
1/64" = 1'-0"
140
0.015625
141
12.0
290
     0
  0
SCALE
  5
5B
102
{ACAD_REACTORS
330
47
102
}
330
47
100
AcDbScale
 70
     0
300
1/32" = 1'-0"
140
0.03125
141
12.0
290
     0
  0
SCALE
  5
5C
102
{ACAD_REACTORS
330
47
102
}
330
47
100
AcDbScale
 70
     0
300
1/16" = 1'-0"
140
0.0625
141
12.0
290
     0
  0
SCALE
  5
5D
102
{ACAD_REACTORS
330
47
102
}
330
47
100
AcDbScale
 70
     0
300
3/32" = 1'-0"
140
0.09375
141
12.0
290
     0
  0
SCALE
  5
5E
102
{ACAD_REACTORS
330
47
102
}
330
47
100
AcDbScale
 70
     0
300
1/8" = 1'-0"
140
0.125
141
12.0
290
     0
  0
SCALE
  5
5F
102
{ACAD_REACTORS
330
47
102
}
330
47
100
AcDbScale
 70
     0
300
3/16" = 1'-0"
140
0.1875
141
12.0
290
     0
  0
SCALE
  5
60
102
{ACAD_REACTORS
330
47
102
}
330
47
100
AcDbScale
 70
     0
300
1/4" = 1'-0"
140
0.25
141
12.0
290
     0
  0
SCALE
  5
61
102
{ACAD_REACTORS
330
47
102
}
330
47
100
AcDbScale
 70
     0
300
3/8" = 1'-0"
140
0.375
141
12.0
290
     0
  0
SCALE
  5
62
102
{ACAD_REACTORS
330
47
102
}
330
47
100
AcDbScale
 70
     0
300
1/2" = 1'-0"
140
0.5
141
12.0
290
     0
  0
SCALE
  5
63
102
{ACAD_REACTORS
330
47
102
}
330
47
100
AcDbScale
 70
     0
300
3/4" = 1'-0"
140
0.75
141
12.0
290
     0
  0
SCALE
  5
64
102
{ACAD_REACTORS
330
47
102
}
330
47
100
AcDbScale
 70
     0
300
1" = 1'-0"
140
1.0
141
12.0
290
     0
  0
SCALE
  5
65
102
{ACAD_REACTORS
330
47
102
}
330
47
100
AcDbScale
 70
     0
300
1-1/2" = 1'-0"
140
1.5
141
12.0
290
     0
  0
SCALE
  5
66
102
{ACAD_REACTORS
330
47
102
}
330
47
100
AcDbScale
 70
     0
300
3" = 1'-0"
140
3.0
141
12.0
290
     0
  0
SCALE
  5
67
102
{ACAD_REACTORS
330
47
102
}
330
47
100
AcDbScale
 70
     0
300
6" = 1'-0"
140
6.0
141
12.0
290
     0
  0
SCALE
  5
68
102
{ACAD_REACTORS
330
47
102
}
330
47
100
AcDbScale
 70
     0
300
1'-0" = 1'-0"
140
12.0
141
12.0
290
     0
  0
ENDSEC
  0
EOF
