  0
SECTION
  2
HEADER
  9
$ACADVER
  1
AC1015
  9
$ACADMAINTVER
 70
     6
  9
$DWGCODEPAGE
  3
ANSI_932
  9
$INSBASE
 10
0.0
 20
0.0
 30
0.0
  9
$EXTMIN
 10
338.8336916748514
 20
181.6529500771607
 30
0.0
  9
$EXTMAX
 10
569.5910716820981
 20
374.4057806139577
 30
0.0
  9
$LIMMIN
 10
0.0
 20
0.0
  9
$LIMMAX
 10
1189.0
 20
841.0
  9
$ORTHOMODE
 70
     0
  9
$REGENMODE
 70
     1
  9
$FILLMODE
 70
     1
  9
$QTEXTMODE
 70
     0
  9
$MIRRTEXT
 70
     1
  9
$LTSCALE
 40
1.0
  9
$ATTMODE
 70
     1
  9
$TEXTSIZE
 40
3.5
  9
$TRACEWID
 40
1.0
  9
$TEXTSTYLE
  7
Standard
  9
$CLAYER
  8
0
  9
$CELTYPE
  6
ByLayer
  9
$CECOLOR
 62
   256
  9
$CELTSCALE
 40
1.0
  9
$DISPSILH
 70
     0
  9
$DIMSCALE
 40
1.0
  9
$DIMASZ
 40
3.302
  9
$DIMEXO
 40
1.0
  9
$DIMDLI
 40
3.75
  9
$DIMRND
 40
0.0
  9
$DIMDLE
 40
0.0
  9
$DIMEXE
 40
1.0
  9
$DIMTP
 40
0.0
  9
$DIMTM
 40
0.0
  9
$DIMTXT
 40
3.5
  9
$DIMCEN
 40
2.5
  9
$DIMTSZ
 40
0.0
  9
$DIMTOL
 70
     0
  9
$DIMLIM
 70
     0
  9
$DIMTIH
 70
     1
  9
$DIMTOH
 70
     1
  9
$DIMSE1
 70
     0
  9
$DIMSE2
 70
     0
  9
$DIMTAD
 70
     1
  9
$DIMZIN
 70
     0
  9
$DIMBLK
  1

  9
$DIMASO
 70
     1
  9
$DIMSHO
 70
     1
  9
$DIMPOST
  1

  9
$DIMAPOST
  1

  9
$DIMALT
 70
     0
  9
$DIMALTD
 70
     3
  9
$DIMALTF
 40
0.0393700787401575
  9
$DIMLFAC
 40
1.0
  9
$DIMTOFL
 70
     1
  9
$DIMTVP
 40
0.0
  9
$DIMTIX
 70
     0
  9
$DIMSOXD
 70
     0
  9
$DIMSAH
 70
     0
  9
$DIMBLK1
  1

  9
$DIMBLK2
  1

  9
$DIMSTYLE
  2
ISO-25
  9
$DIMCLRD
 70
     0
  9
$DIMCLRE
 70
     0
  9
$DIMCLRT
 70
     0
  9
$DIMTFAC
 40
1.0
  9
$DIMGAP
 40
1.524
  9
$DIMJUST
 70
     0
  9
$DIMSD1
 70
     0
  9
$DIMSD2
 70
     0
  9
$DIMTOLJ
 70
     0
  9
$DIMTZIN
 70
     0
  9
$DIMALTZ
 70
     0
  9
$DIMALTTZ
 70
     0
  9
$DIMUPT
 70
     0
  9
$DIMDEC
 70
     2
  9
$DIMTDEC
 70
     2
  9
$DIMALTU
 70
     2
  9
$DIMALTTD
 70
     3
  9
$DIMTXSTY
  7
Standard
  9
$DIMAUNIT
 70
     0
  9
$DIMADEC
 70
     2
  9
$DIMALTRND
 40
0.0
  9
$DIMAZIN
 70
     0
  9
$DIMDSEP
 70
    44
  9
$DIMATFIT
 70
     3
  9
$DIMFRAC
 70
     0
  9
$DIMLDRBLK
  1

  9
$DIMLUNIT
 70
     2
  9
$DIMLWD
 70
    -2
  9
$DIMLWE
 70
    -2
  9
$DIMTMOVE
 70
     0
  9
$LUNITS
 70
     2
  9
$LUPREC
 70
     2
  9
$SKETCHINC
 40
1.0
  9
$FILLETRAD
 40
10.0
  9
$AUNITS
 70
     0
  9
$AUPREC
 70
     2
  9
$MENU
  1
.
  9
$ELEVATION
 40
0.0
  9
$PELEVATION
 40
0.0
  9
$THICKNESS
 40
0.0
  9
$LIMCHECK
 70
     0
  9
$CHAMFERA
 40
0.0
  9
$CHAMFERB
 40
0.0
  9
$CHAMFERC
 40
0.0
  9
$CHAMFERD
 40
0.0
  9
$SKPOLY
 70
     0
  9
$TDCREATE
 40
2458682.537002107
  9
$TDUCREATE
 40
2458682.162002107
  9
$TDUPDATE
 40
2458737.560814375
  9
$TDUUPDATE
 40
2458737.185814375
  9
$TDINDWG
 40
0.0015333912
  9
$TDUSRTIMER
 40
0.000239537
  9
$USRTIMER
 70
     1
  9
$ANGBASE
 50
0.0
  9
$ANGDIR
 70
     0
  9
$PDMODE
 70
     0
  9
$PDSIZE
 40
-1.0
  9
$PLINEWID
 40
0.0
  9
$SPLFRAME
 70
     0
  9
$SPLINETYPE
 70
     6
  9
$SPLINESEGS
 70
     8
  9
$HANDSEED
  5
5B5
  9
$SURFTAB1
 70
     6
  9
$SURFTAB2
 70
     6
  9
$SURFTYPE
 70
     6
  9
$SURFU
 70
     6
  9
$SURFV
 70
     6
  9
$UCSBASE
  2

  9
$UCSNAME
  2

  9
$UCSORG
 10
0.0
 20
0.0
 30
0.0
  9
$UCSXDIR
 10
1.0
 20
0.0
 30
0.0
  9
$UCSYDIR
 10
0.0
 20
1.0
 30
0.0
  9
$UCSORTHOREF
  2

  9
$UCSORTHOVIEW
 70
     1
  9
$UCSORGTOP
 10
0.0
 20
0.0
 30
0.0
  9
$UCSORGBOTTOM
 10
0.0
 20
0.0
 30
0.0
  9
$UCSORGLEFT
 10
0.0
 20
0.0
 30
0.0
  9
$UCSORGRIGHT
 10
0.0
 20
0.0
 30
0.0
  9
$UCSORGFRONT
 10
0.0
 20
0.0
 30
0.0
  9
$UCSORGBACK
 10
0.0
 20
0.0
 30
0.0
  9
$PUCSBASE
  2

  9
$PUCSNAME
  2

  9
$PUCSORG
 10
0.0
 20
0.0
 30
0.0
  9
$PUCSXDIR
 10
1.0
 20
0.0
 30
0.0
  9
$PUCSYDIR
 10
0.0
 20
1.0
 30
0.0
  9
$PUCSORTHOREF
  2

  9
$PUCSORTHOVIEW
 70
     0
  9
$PUCSORGTOP
 10
0.0
 20
0.0
 30
0.0
  9
$PUCSORGBOTTOM
 10
0.0
 20
0.0
 30
0.0
  9
$PUCSORGLEFT
 10
0.0
 20
0.0
 30
0.0
  9
$PUCSORGRIGHT
 10
0.0
 20
0.0
 30
0.0
  9
$PUCSORGFRONT
 10
0.0
 20
0.0
 30
0.0
  9
$PUCSORGBACK
 10
0.0
 20
0.0
 30
0.0
  9
$USERI1
 70
     0
  9
$USERI2
 70
     0
  9
$USERI3
 70
     0
  9
$USERI4
 70
     0
  9
$USERI5
 70
     0
  9
$USERR1
 40
0.0
  9
$USERR2
 40
0.0
  9
$USERR3
 40
0.0
  9
$USERR4
 40
0.0
  9
$USERR5
 40
0.0
  9
$WORLDVIEW
 70
     1
  9
$SHADEDGE
 70
     3
  9
$SHADEDIF
 70
    70
  9
$TILEMODE
 70
     1
  9
$MAXACTVP
 70
    64
  9
$PINSBASE
 10
0.0
 20
0.0
 30
0.0
  9
$PLIMCHECK
 70
     0
  9
$PEXTMIN
 10
1.000000000000000E+20
 20
1.000000000000000E+20
 30
1.000000000000000E+20
  9
$PEXTMAX
 10
-1.000000000000000E+20
 20
-1.000000000000000E+20
 30
-1.000000000000000E+20
  9
$PLIMMIN
 10
0.0
 20
0.0
  9
$PLIMMAX
 10
0.0
 20
0.0
  9
$UNITMODE
 70
     0
  9
$VISRETAIN
 70
     1
  9
$PLINEGEN
 70
     0
  9
$PSLTSCALE
 70
     1
  9
$TREEDEPTH
 70
  3020
  9
$CMLSTYLE
  2
Standard
  9
$CMLJUST
 70
     0
  9
$CMLSCALE
 40
20.0
  9
$PROXYGRAPHICS
 70
     1
  9
$MEASUREMENT
 70
     1
  9
$CELWEIGHT
370
    -1
  9
$ENDCAPS
280
     0
  9
$JOINSTYLE
280
     0
  9
$LWDISPLAY
290
     1
  9
$INSUNITS
 70
     4
  9
$HYPERLINKBASE
  1

  9
$STYLESHEET
  1

  9
$XEDIT
290
     1
  9
$CEPSNTYPE
380
     0
  9
$PSTYLEMODE
290
     1
  9
$FINGERPRINTGUID
  2
{1A54AFE4-E985-48C0-86FF-39F61F1616D1}
  9
$VERSIONGUID
  2
{FAEB1C32-E019-11D5-929B-00C0DF256EC4}
  9
$EXTNAMES
290
     1
  9
$PSVPSCALE
 40
0.0
  9
$OLESTARTUP
290
     0
  0
ENDSEC
  0
SECTION
  2
CLASSES
  0
CLASS
  1
ACDBDICTIONARYWDFLT
  2
AcDbDictionaryWithDefault
  3
ObjectDBX Classes
 90
        0
280
     0
281
     0
  0
CLASS
  1
VISUALSTYLE
  2
AcDbVisualStyle
  3
ObjectDBX Classes
 90
     4095
280
     0
281
     0
  0
CLASS
  1
MATERIAL
  2
AcDbMaterial
  3
ObjectDBX Classes
 90
     1153
280
     0
281
     0
  0
CLASS
  1
SCALE
  2
AcDbScale
  3
ObjectDBX Classes
 90
     1153
280
     0
281
     0
  0
CLASS
  1
TABLESTYLE
  2
AcDbTableStyle
  3
ObjectDBX Classes
 90
     4095
280
     0
281
     0
  0
CLASS
  1
MLEADERSTYLE
  2
AcDbMLeaderStyle
  3
ACDB_MLEADERSTYLE_CLASS
 90
     4095
280
     0
281
     0
  0
CLASS
  1
SUN
  2
AcDbSun
  3
SCENEOE
 90
     1153
280
     0
281
     0
  0
CLASS
  1
ACDBPLACEHOLDER
  2
AcDbPlaceHolder
  3
ObjectDBX Classes
 90
        0
280
     0
281
     0
  0
CLASS
  1
LAYOUT
  2
AcDbLayout
  3
ObjectDBX Classes
 90
        0
280
     0
281
     0
  0
CLASS
  1
DICTIONARYVAR
  2
AcDbDictionaryVar
  3
ObjectDBX Classes
 90
        0
280
     0
281
     0
  0
ENDSEC
  0
SECTION
  2
TABLES
  0
TABLE
  2
VPORT
  5
8
330
0
100
AcDbSymbolTable
 70
     1
  0
VPORT
  5
29
330
8
100
AcDbSymbolTableRecord
100
AcDbViewportTableRecord
  2
*Active
 70
     0
 10
0.0
 20
0.0
 11
1.0
 21
1.0
 12
455.184603900697
 22
278.027846392429
 13
0.0
 23
0.0
 14
10.0
 24
10.0
 15
10.0
 25
10.0
 16
0.0
 26
0.0
 36
1.0
 17
0.0
 27
0.0
 37
0.0
 40
196.6047884831473
 41
1.94074074074074
 42
50.0
 43
0.0
 44
0.0
 50
0.0
 51
0.0
 71
    16
 72
  2000
 73
     1
 74
     3
 75
     0
 76
     0
 77
     0
 78
     0
281
     0
 65
     1
110
0.0
120
0.0
130
0.0
111
1.0
121
0.0
131
0.0
112
0.0
122
1.0
132
0.0
 79
     1
146
0.0
  0
ENDTAB
  0
TABLE
  2
LTYPE
  5
5
330
0
100
AcDbSymbolTable
 70
     6
  0
LTYPE
  5
14
330
5
100
AcDbSymbolTableRecord
100
AcDbLinetypeTableRecord
  2
ByBlock
 70
     0
  3

 72
    65
 73
     0
 40
0.0
  0
LTYPE
  5
15
330
5
100
AcDbSymbolTableRecord
100
AcDbLinetypeTableRecord
  2
ByLayer
 70
     0
  3

 72
    65
 73
     0
 40
0.0
  0
LTYPE
  5
16
330
5
100
AcDbSymbolTableRecord
100
AcDbLinetypeTableRecord
  2
Continuous
 70
     0
  3
Solid line
 72
    65
 73
     0
 40
0.0
  0
LTYPE
  5
6E
330
5
100
AcDbSymbolTableRecord
100
AcDbLinetypeTableRecord
  2
HIDDEN
 70
     0
  3
Hidden __ __ __ __ __ __ __ __ __ __ __ __ __ __
 72
    65
 73
     2
 40
1.905
 49
1.27
 74
     0
 49
-0.635
 74
     0
  0
LTYPE
  5
6F
330
5
100
AcDbSymbolTableRecord
100
AcDbLinetypeTableRecord
  2
PHANTOM
 70
     0
  3
Phantom ______  __  __  ______  __  __  ______
 72
    65
 73
     6
 40
12.7
 49
6.35
 74
     0
 49
-1.27
 74
     0
 49
1.27
 74
     0
 49
-1.27
 74
     0
 49
1.27
 74
     0
 49
-1.27
 74
     0
  0
LTYPE
  5
70
330
5
100
AcDbSymbolTableRecord
100
AcDbLinetypeTableRecord
  2
CENTER
 70
     0
  3
Center ____ _ ____ _ ____ _ ____ _ ____ _ ____
 72
    65
 73
     4
 40
10.16
 49
6.35
 74
     0
 49
-1.27
 74
     0
 49
1.27
 74
     0
 49
-1.27
 74
     0
  0
LTYPE
  5
71
330
5
100
AcDbSymbolTableRecord
100
AcDbLinetypeTableRecord
  2
CENTERX2
 70
     0
  3
Center (2x) ________  __  ________  __  _____
 72
    65
 73
     4
 40
20.32
 49
12.7
 74
     0
 49
-2.54
 74
     0
 49
2.54
 74
     0
 49
-2.54
 74
     0
  0
LTYPE
  5
72
330
5
100
AcDbSymbolTableRecord
100
AcDbLinetypeTableRecord
  2
DOT2
 70
     0
  3
Dot (.5x) ........................................
 72
    65
 73
     2
 40
0.635
 49
0.0
 74
     0
 49
-0.635
 74
     0
  0
ENDTAB
  0
TABLE
  2
LAYER
  5
2
102
{ACAD_XDICTIONARY
360
303
102
}
330
0
100
AcDbSymbolTable
 70
     3
  0
LAYER
  5
10
330
2
100
AcDbSymbolTableRecord
100
AcDbLayerTableRecord
  2
0
 70
     0
 62
     7
  6
Continuous
370
    -3
390
F
  0
LAYER
  5
73
330
2
100
AcDbSymbolTableRecord
100
AcDbLayerTableRecord
  2
FORMAT
 70
     0
 62
     7
  6
Continuous
370
    -3
390
F
  0
LAYER
  5
2E6
102
{ACAD_XDICTIONARY
360
2E7
102
}
330
2
100
AcDbSymbolTableRecord
100
AcDbLayerTableRecord
  2
寸法線
 70
     0
 62
     7
  6
Continuous
370
    -3
390
F
  0
ENDTAB
  0
TABLE
  2
STYLE
  5
3
330
0
100
AcDbSymbolTable
 70
     3
  0
STYLE
  5
11
330
3
100
AcDbSymbolTableRecord
100
AcDbTextStyleTableRecord
  2
Standard
 70
     0
 40
0.0
 41
1.0
 50
0.0
 71
     0
 42
3.5
  3
txt
  4
bigfont
  0
STYLE
  5
E1
330
3
100
AcDbSymbolTableRecord
100
AcDbTextStyleTableRecord
  2
SLDTEXTSTYLE0
 70
     0
 40
0.0
 41
0.75
 50
0.0
 71
     0
 42
3.5
  3
TXT
  4
bigfont
  0
STYLE
  5
135
330
3
100
AcDbSymbolTableRecord
100
AcDbTextStyleTableRecord
  2
SLDTEXTSTYLE1
 70
     0
 40
0.0
 41
0.65625
 50
0.0
 71
     0
 42
3.5
  3
TXT
  4
bigfont
  0
ENDTAB
  0
TABLE
  2
VIEW
  5
6
330
0
100
AcDbSymbolTable
 70
     0
  0
ENDTAB
  0
TABLE
  2
UCS
  5
7
330
0
100
AcDbSymbolTable
 70
     0
  0
ENDTAB
  0
TABLE
  2
APPID
  5
9
330
0
100
AcDbSymbolTable
 70
     3
  0
APPID
  5
12
330
9
100
AcDbSymbolTableRecord
100
AcDbRegAppTableRecord
  2
ACAD
 70
     0
  0
APPID
  5
2F3
330
9
100
AcDbSymbolTableRecord
100
AcDbRegAppTableRecord
  2
ACAD_DSTYLE_DIMJAG
 70
     0
  0
APPID
  5
2F4
330
9
100
AcDbSymbolTableRecord
100
AcDbRegAppTableRecord
  2
ACAD_DSTYLE_DIMTALN
 70
     0
  0
ENDTAB
  0
TABLE
  2
DIMSTYLE
  5
A
330
0
100
AcDbSymbolTable
 70
     4
100
AcDbDimStyleTable
  0
DIMSTYLE
105
27
330
A
100
AcDbSymbolTableRecord
100
AcDbDimStyleTableRecord
  2
ISO-25
 70
     0
 41
2.5
 42
0.625
 43
3.75
 44
1.25
 73
     0
 74
     0
 77
     1
 78
     8
140
2.5
141
2.5
143
0.03937007874016
147
0.625
171
     3
172
     1
178
     0
271
     2
272
     2
274
     3
278
    44
283
     0
284
     8
340
11
  0
DIMSTYLE
105
2EC
330
A
100
AcDbSymbolTableRecord
100
AcDbDimStyleTableRecord
  2
STANDARD
 70
     0
 41
2.5
 42
1.5
 44
1.0
 73
     0
 74
     0
 77
     3
 78
     8
 79
     2
140
2.500000000000003
141
0.0
147
1.0
171
     0
172
     1
173
     1
176
     8
177
     8
271
     2
178
   256
179
     2
271
     2
272
     2
274
     0
289
     1
340
11
341
2ED
343
2ED
344
2ED
1001
ACAD_DSTYLE_DIMJAG
1070
   388
1040
1.5
1001
ACAD_DSTYLE_DIMTALN
1070
   392
1070
     0
  0
DIMSTYLE
105
2F5
330
A
100
AcDbSymbolTableRecord
100
AcDbDimStyleTableRecord
  2
STANDARD$0
 70
     0
 41
2.5
 42
1.0
 43
4.0
 44
1.0
 73
     0
 74
     0
 77
     1
 78
     8
140
2.5
145
1.0
147
0.9999999999999991
171
     0
172
     1
176
     8
177
     8
271
     2
178
   256
271
     2
272
     2
274
     0
284
     8
289
     1
340
11
341
2F6
342
2ED
371
    -1
372
    -1
1001
ACAD_DSTYLE_DIMJAG
1070
   388
1040
1.5
1001
ACAD_DSTYLE_DIMTALN
1070
   392
1070
     0
  0
DIMSTYLE
105
2FC
330
A
100
AcDbSymbolTableRecord
100
AcDbDimStyleTableRecord
  2
STANDARD-1
 70
     0
 41
4.0
 42
3.0
 43
2.0
 44
2.0
 73
     0
 74
     0
 77
     3
 78
     8
 79
     2
140
5.0
141
0.0
147
2.0
172
     1
176
   252
177
   252
178
     0
179
     2
271
     2
272
     2
288
     1
289
     0
340
11
341
2ED
342
2ED
1001
ACAD_DSTYLE_DIMJAG
1070
   388
1040
1.5
1001
ACAD_DSTYLE_DIMTALN
1070
   392
1070
     0
  0
ENDTAB
  0
TABLE
  2
BLOCK_RECORD
  5
1
330
0
100
AcDbSymbolTable
 70
     4
  0
BLOCK_RECORD
  5
1F
330
1
100
AcDbSymbolTableRecord
100
AcDbBlockTableRecord
  2
*Model_Space
340
22
  0
BLOCK_RECORD
  5
1B
330
1
100
AcDbSymbolTableRecord
100
AcDbBlockTableRecord
  2
*Paper_Space
340
1E
  0
BLOCK_RECORD
  5
23
330
1
100
AcDbSymbolTableRecord
100
AcDbBlockTableRecord
  2
*Paper_Space0
340
26
  0
BLOCK_RECORD
  5
142
330
1
100
AcDbSymbolTableRecord
100
AcDbBlockTableRecord
  2
SW_NOTE_0
340
0
  0
BLOCK_RECORD
  5
2ED
330
1
100
AcDbSymbolTableRecord
100
AcDbBlockTableRecord
  2
_OPEN
340
0
  0
BLOCK_RECORD
  5
2F6
330
1
100
AcDbSymbolTableRecord
100
AcDbBlockTableRecord
  2
SUN
340
0
  0
ENDTAB
  0
ENDSEC
  0
SECTION
  2
BLOCKS
  0
BLOCK
  5
20
330
1F
100
AcDbEntity
  8
0
100
AcDbBlockBegin
  2
*Model_Space
 70
     0
 10
0.0
 20
0.0
 30
0.0
  3
*Model_Space
  1

  0
ENDBLK
  5
21
330
1F
100
AcDbEntity
  8
0
100
AcDbBlockEnd
  0
BLOCK
  5
1C
330
1B
100
AcDbEntity
 67
     1
  8
0
100
AcDbBlockBegin
  2
*Paper_Space
 70
     0
 10
0.0
 20
0.0
 30
0.0
  3
*Paper_Space
  1

  0
ENDBLK
  5
1D
330
1B
100
AcDbEntity
 67
     1
  8
0
100
AcDbBlockEnd
  0
BLOCK
  5
24
330
23
100
AcDbEntity
  8
0
100
AcDbBlockBegin
  2
*Paper_Space0
 70
     0
 10
0.0
 20
0.0
 30
0.0
  3
*Paper_Space0
  1

  0
ENDBLK
  5
25
330
23
100
AcDbEntity
  8
0
100
AcDbBlockEnd
  0
BLOCK
  5
143
330
142
100
AcDbEntity
  8
0
100
AcDbBlockBegin
  2
SW_NOTE_0
 70
     0
 10
0.0
 20
0.0
 30
0.0
  3
SW_NOTE_0
  1

  0
MTEXT
  5
145
330
142
100
AcDbEntity
  8
0
  6
Continuous
 62
     0
370
     0
100
AcDbMText
 10
0.0
 20
1.933601609657942
 30
0.0
 40
1.5
 41
0.0
 71
     1
 72
     1
  1
指示なき場合：
  7
SLDTEXTSTYLE0
 73
     1
 44
1.0
  0
MTEXT
  5
146
330
142
100
AcDbEntity
  8
0
  6
Continuous
 62
     0
370
     0
100
AcDbMText
 10
0.0
 20
-0.5663983344627033
 30
0.0
 40
1.5
 41
0.0
 71
     1
 72
     1
  1
寸法はミリメータとする　
  7
SLDTEXTSTYLE0
 73
     1
 44
1.0
  0
MTEXT
  5
147
330
142
100
AcDbEntity
  8
0
  6
Continuous
 62
     0
370
     0
100
AcDbMText
 10
0.0
 20
-3.066398278583349
 30
0.0
 40
1.5
 41
0.0
 71
     1
 72
     1
  1
表面粗さ：
  7
SLDTEXTSTYLE0
 73
     1
 44
1.0
  0
MTEXT
  5
148
330
142
100
AcDbEntity
  8
0
  6
Continuous
 62
     0
370
     0
100
AcDbMText
 10
0.0
 20
-5.566398222703994
 30
0.0
 40
1.5
 41
0.0
 71
     1
 72
     1
  1
　公差　：
  7
SLDTEXTSTYLE0
 73
     1
 44
1.0
  0
MTEXT
  5
149
330
142
100
AcDbEntity
  8
0
  6
Continuous
 62
     0
370
     0
100
AcDbMText
 10
0.0
 20
-8.06639816682464
 30
0.0
 40
1.5
 41
0.0
 71
     1
 72
     1
  1
　寸法　：
  7
SLDTEXTSTYLE0
 73
     1
 44
1.0
  0
MTEXT
  5
14A
330
142
100
AcDbEntity
  8
0
  6
Continuous
 62
     0
370
     0
100
AcDbMText
 10
0.0
 20
-10.56639811094528
 30
0.0
 40
1.5
 41
0.0
 71
     1
 72
     1
  1
　角度　：
  7
SLDTEXTSTYLE0
 73
     1
 44
1.0
  0
ENDBLK
  5
144
330
142
100
AcDbEntity
  8
0
100
AcDbBlockEnd
  0
BLOCK
  5
2EE
330
2ED
100
AcDbEntity
  8
0
100
AcDbBlockBegin
  2
_OPEN
 70
     0
 10
0.0
 20
0.0
 30
0.0
  3
_OPEN
  1

  0
LINE
  5
2EF
330
2ED
100
AcDbEntity
  8
0
  6
ByBlock
 62
     0
100
AcDbLine
 10
-1.0
 20
0.1666666666666667
 30
0.0
 11
0.0
 21
0.0
 31
0.0
  0
LINE
  5
2F0
330
2ED
100
AcDbEntity
  8
0
  6
ByBlock
 62
     0
100
AcDbLine
 10
0.0
 20
0.0
 30
0.0
 11
-1.0
 21
-0.1666666666666667
 31
0.0
  0
LINE
  5
2F1
330
2ED
100
AcDbEntity
  8
0
  6
ByBlock
 62
     0
100
AcDbLine
 10
0.0
 20
0.0
 30
0.0
 11
-1.0
 21
0.0
 31
0.0
  0
ENDBLK
  5
2F2
330
2ED
100
AcDbEntity
  8
0
100
AcDbBlockEnd
  0
BLOCK
  5
2F7
330
2F6
100
AcDbEntity
  8
0
100
AcDbBlockBegin
  2
SUN
 70
     0
 10
0.0
 20
0.0
 30
0.0
  3
SUN
  1

  0
LINE
  5
2F8
330
2F6
100
AcDbEntity
  8
0
100
AcDbLine
 10
-0.0000000000000568
 20
0.0
 30
0.0
 11
-1.500000000000057
 21
0.0
 31
0.0
  0
LINE
  5
2F9
330
2F6
100
AcDbEntity
  8
0
100
AcDbLine
 10
-0.0000000000000568
 20
0.0000000000000284
 30
0.0
 11
-1.500000000000057
 21
0.401923788646684
 31
0.0
  0
LINE
  5
2FA
330
2F6
100
AcDbEntity
  8
0
100
AcDbLine
 10
-0.0000000000000568
 20
0.0000000000000284
 30
0.0
 11
-1.500000000000057
 21
-0.4019237886466556
 31
0.0
  0
ENDBLK
  5
2FB
330
2F6
100
AcDbEntity
  8
0
100
AcDbBlockEnd
  0
ENDSEC
  0
SECTION
  2
ENTITIES
  0
ARC
  5
151
330
1F
100
AcDbEntity
  8
0
  6
Continuous
 62
     7
370
    25
100
AcDbCircle
 10
568.5605465429692
 20
221.2059146343019
 30
0.0
 40
0.2000000000000455
100
AcDbArc
 50
299.9973117336379
 51
0.0
  0
LINE
  5
152
330
1F
100
AcDbEntity
  8
0
  6
Continuous
 62
     7
370
    25
100
AcDbLine
 10
568.7605466442549
 20
221.2059147047657
 30
0.0
 11
568.7605466442549
 21
251.907848515485
 31
0.0
  0
LINE
  5
153
330
1F
100
AcDbEntity
  8
0
  6
Continuous
 62
     7
370
    25
100
AcDbLine
 10
562.6617502330769
 20
217.5696781984047
 30
0.0
 11
568.6605385112294
 21
221.032704958785
 31
0.0
  0
LINE
  5
154
330
1F
100
AcDbEntity
  8
0
  6
Continuous
 62
     7
370
    25
100
AcDbLine
 10
550.982868718148
 20
210.8276034089333
 30
0.0
 11
556.9816569963006
 21
214.2906301693136
 31
0.0
  0
LINE
  5
155
330
1F
100
AcDbEntity
  8
0
  6
Continuous
 62
     7
370
    25
100
AcDbLine
 10
550.0050679962602
 20
211.2766281115489
 30
0.0
 11
550.7828854616405
 21
210.8276036465393
 31
0.0
  0
ARC
  5
156
330
1F
100
AcDbEntity
  8
0
  6
Continuous
 62
     7
370
    25
100
AcDbCircle
 10
550.8828770133055
 20
211.0008132365181
 30
0.0
 40
0.2000000000000446
100
AcDbArc
 50
240.0026882663678
 51
299.997311733662
  0
LINE
  5
157
330
1F
100
AcDbEntity
  8
0
  6
Continuous
 62
     7
370
    25
100
AcDbLine
 10
568.6605380996391
 20
252.081059271494
 30
0.0
 11
567.8827206342589
 21
252.5300837365036
 31
0.0
  0
ARC
  5
158
330
1F
100
AcDbEntity
  8
0
  6
Continuous
 62
     7
370
    25
100
AcDbCircle
 10
568.5605465429692
 20
251.9078491612061
 30
0.0
 40
0.2000000000000455
100
AcDbArc
 50
0.0
 51
60.00268826636699
  0
LINE
  5
160
330
1F
100
AcDbEntity
  8
0
  6
Continuous
 62
     7
370
    25
100
AcDbLine
 10
549.963638066054
 20
211.3681702707918
 30
0.0
 11
567.6413078591356
 21
221.5732718206435
 31
0.0
  0
ARC
  5
161
330
1F
100
AcDbEntity
  8
0
  6
Continuous
 62
     7
370
    25
100
AcDbCircle
 10
568.3949241795513
 20
221.3015277633397
 30
0.0
 40
0.3073613642659642
100
AcDbArc
 50
302.6055705212978
 51
357.3944846940694
  0
LINE
  5
162
330
1F
100
AcDbEntity
  8
0
  6
Continuous
 62
     7
370
    25
100
AcDbLine
 10
568.5605466771806
 20
221.0426065465141
 30
0.0
 11
567.7827292118003
 21
221.4916310115236
 31
0.0
  0
ARC
  5
163
330
1F
100
AcDbEntity
  8
0
  6
Continuous
 62
     7
370
    25
100
AcDbCircle
 10
567.6171067141719
 20
221.7505522283485
 30
0.0
 40
0.3073613642649111
100
AcDbArc
 50
302.6055705212263
 51
357.3944846941877
  0
LINE
  5
164
330
1F
100
AcDbEntity
  8
0
  6
Continuous
 62
     7
370
    25
100
AcDbLine
 10
567.9241503278005
 20
221.7365798422716
 30
0.0
 11
568.7019677931809
 21
221.2875553772621
 31
0.0
  0
LINE
  5
165
330
1F
100
AcDbEntity
  8
0
  6
Continuous
 62
     7
370
    25
100
AcDbLine
 10
556.3275991108917
 20
214.6338027068676
 30
0.0
 11
561.9844536290702
 21
217.8994353092676
 31
0.0
  0
LINE
  5
166
330
1F
100
AcDbEntity
  8
0
  6
Continuous
 62
     7
370
    25
100
AcDbLine
 10
556.3275991108917
 20
214.6338027068676
 30
0.0
 11
556.8834106344701
 21
214.3015393967061
 31
0.0
  0
LINE
  5
167
330
1F
100
AcDbEntity
  8
0
  6
Continuous
 62
     7
370
    25
100
AcDbLine
 10
550.8828768840991
 20
210.8375049966624
 30
0.0
 11
556.8834106344701
 21
214.3015393967061
 31
0.0
  0
LINE
  5
168
330
1F
100
AcDbEntity
  8
0
  6
Continuous
 62
     7
370
    25
100
AcDbLine
 10
550.1050594187188
 20
211.2865294616719
 30
0.0
 11
550.8828768840991
 21
210.8375049966624
 31
0.0
  0
LINE
  5
169
330
1F
100
AcDbEntity
  8
0
  6
Continuous
 62
     7
370
    25
100
AcDbLine
 10
549.963638066054
 20
211.3681702707918
 30
0.0
 11
550.1050594187188
 21
211.2865294616719
 31
0.0
  0
LINE
  5
16A
330
1F
100
AcDbEntity
  8
0
  6
Continuous
 62
     7
370
    25
100
AcDbLine
 10
567.7827292118003
 20
221.4916310115236
 30
0.0
 11
567.6413078591356
 21
221.5732718206435
 31
0.0
  0
LINE
  5
16B
330
1F
100
AcDbEntity
  8
0
  6
Continuous
 62
     7
370
    25
100
AcDbLine
 10
562.5600129268096
 20
217.5785721464703
 30
0.0
 11
568.5605466771806
 21
221.0426065465141
 31
0.0
  0
LINE
  5
16C
330
1F
100
AcDbEntity
  8
0
  6
Continuous
 62
     7
370
    25
100
AcDbLine
 10
561.9844536290702
 20
217.8994353092676
 30
0.0
 11
562.5600129268096
 21
217.5785721464703
 31
0.0
  0
ARC
  5
16D
330
1F
100
AcDbEntity
  8
0
  6
Continuous
 62
     7
370
    25
100
AcDbCircle
 10
567.837936497243
 20
252.4525006210119
 30
0.0
 40
0.087341054801343
100
AcDbArc
 50
350.7848636092797
 51
129.204384635961
  0
LINE
  5
16E
330
1F
100
AcDbEntity
  8
0
  6
Continuous
 62
     7
370
    25
100
AcDbLine
 10
567.9241503278005
 20
221.7365798422716
 30
0.0
 11
567.9241503278005
 21
252.4385136529909
 31
0.0
  0
LINE
  5
16F
330
1F
100
AcDbEntity
  8
0
  6
Continuous
 62
     7
370
    25
100
AcDbLine
 10
567.7827292118003
 20
221.6549126367497
 30
0.0
 11
567.7827292118003
 21
221.4916310115236
 31
0.0
  0
LINE
  5
170
330
1F
100
AcDbEntity
  8
0
  6
Continuous
 62
     7
370
    25
100
AcDbLine
 10
568.7019677931809
 20
251.9894891879814
 30
0.0
 11
567.9241503278005
 21
252.4385136529909
 31
0.0
  0
LINE
  5
171
330
1F
100
AcDbEntity
  8
0
  6
Continuous
 62
     7
370
    25
100
AcDbLine
 10
568.7019677931809
 20
221.2875553772621
 30
0.0
 11
568.7019677931809
 21
251.9894891879814
 31
0.0
  0
ELLIPSE
  5
172
330
1F
100
AcDbEntity
  8
0
  6
Continuous
 62
     7
370
    25
100
AcDbEllipse
 10
562.560012978705
 20
217.7418803416953
 30
0.0
 11
-0.1026525863728693
 21
0.1716643463722676
 31
0.0
210
0.0
220
0.0
230
1.0
 40
0.587368716253727
 41
2.34723908744874
 42
3.13255598678344
  0
ELLIPSE
  5
173
330
1F
100
AcDbEntity
  8
0
  6
Continuous
 62
     7
370
    25
100
AcDbEllipse
 10
556.8834105775697
 20
214.4648475291247
 30
0.0
 11
-0.09741494644117667
 21
0.1746892004041456
 31
0.0
210
0.0
220
0.0
230
1.0
 40
0.5672183927596846
 41
2.364703013104938
 42
3.935499339899851
  0
LINE
  5
174
330
1F
100
AcDbEntity
  8
0
  6
Continuous
 62
     7
370
    25
100
AcDbLine
 10
557.0223634433364
 20
214.3817816739561
 30
0.0
 11
557.0223634433364
 21
215.0348816655992
 31
0.0
  0
ARC
  5
175
330
1F
100
AcDbEntity
  8
0
  6
Continuous
 62
     7
370
    25
100
AcDbCircle
 10
550.0498531809249
 20
211.3542115671027
 30
0.0
 40
0.0873418346896117
100
AcDbArc
 50
170.7860017457886
 51
309.2030804344864
  0
LINE
  5
1BF
330
1F
100
AcDbEntity
  8
0
  6
Continuous
 62
     7
370
    25
100
AcDbLine
 10
340.5186162410609
 20
332.9313346284987
 30
0.0
 11
550.5293238471442
 21
211.6947337211166
 31
0.0
  0
ELLIPSE
  5
1C0
330
1F
100
AcDbEntity
  8
0
  6
Continuous
 62
     7
370
    25
100
AcDbEllipse
 10
-157.2845643450231
 20
-184.6928784625201
 30
0.0
 11
715.7068760690426
 21
416.9264721031454
 31
0.0
210
0.0
220
0.0
230
1.0
 40
0.0821258503829771
 41
6.079285487282347
 42
6.15563113813483
  0
LINE
  5
1C1
330
1F
100
AcDbEntity
  8
0
  6
Continuous
 62
     7
370
    25
100
AcDbLine
 10
339.8115093439706
 20
332.5231305056775
 30
0.0
 11
549.8222169500539
 21
211.2865295982953
 31
0.0
  0
LINE
  5
1C2
330
1F
100
AcDbEntity
  8
0
  6
Continuous
 62
     7
370
    25
100
AcDbLine
 10
549.8222169500539
 20
211.2865295982953
 30
0.0
 11
550.5293238471442
 21
211.6947337211166
 31
0.0
  0
LINE
  5
1C6
330
1F
100
AcDbEntity
  8
0
  6
Continuous
 62
     7
370
    25
100
AcDbLine
 10
357.7720213690526
 20
342.891513400522
 30
0.0
 11
567.7827289751358
 21
221.6549124931399
 31
0.0
  0
LINE
  5
1C7
330
1F
100
AcDbEntity
  8
0
  6
Continuous
 62
     7
370
    25
100
AcDbLine
 10
357.7720213690526
 20
373.9200632544532
 30
0.0
 11
567.7827289751358
 21
252.683462347071
 31
0.0
  0
LINE
  5
1C8
330
1F
100
AcDbEntity
  8
0
  6
Continuous
 62
     7
370
    25
100
AcDbLine
 10
567.7827289751358
 20
221.6549124931399
 30
0.0
 11
567.7827289751358
 21
252.683462347071
 31
0.0
  0
LINE
  5
1C9
330
1F
100
AcDbEntity
  8
0
  6
Continuous
 62
     7
370
    25
100
AcDbLine
 10
352.1151671801463
 20
339.6258809882067
 30
0.0
 11
562.1258747862296
 21
218.3892800808246
 31
0.0
  0
LINE
  5
1CA
330
1F
100
AcDbEntity
  8
0
  6
Continuous
 62
     7
370
    25
100
AcDbLine
 10
562.1258747862296
 20
218.3892800808246
 30
0.0
 11
567.7827289751358
 21
221.6549124931399
 31
0.0
  0
ARC
  5
1D9
330
1F
100
AcDbEntity
  8
0
  6
Continuous
 62
     8
370
    25
100
AcDbCircle
 10
568.6191306401935
 20
221.1243826991519
 30
0.0
 40
0.1005953272401284
100
AcDbArc
 50
234.3824071858914
 51
294.3071553650868
  0
ARC
  5
1DA
330
1F
100
AcDbEntity
  8
0
  6
Continuous
 62
     8
370
    25
100
AcDbCircle
 10
568.6604557169799
 20
221.1959335164881
 30
0.0
 40
0.1005873642273732
100
AcDbArc
 50
5.694777307516532
 51
65.62564794306282
  0
ARC
  5
1DB
330
1F
100
AcDbEntity
  8
0
  6
Continuous
 62
     8
370
    25
100
AcDbCircle
 10
568.6604557169795
 20
251.8978673272071
 30
0.0
 40
0.100587364227721
100
AcDbArc
 50
5.694777307610019
 51
65.6256479429393
  0
ARC
  5
1DC
330
1F
100
AcDbEntity
  8
0
  6
Continuous
 62
     8
370
    25
100
AcDbCircle
 10
550.9414608471119
 20
210.9192811493003
 30
0.0
 40
0.1005953272401315
100
AcDbArc
 50
234.3824071859723
 51
294.307155365126
  0
ARC
  5
1DD
330
1F
100
AcDbEntity
  8
0
  6
Continuous
 62
     8
370
    25
100
AcDbCircle
 10
550.8242934550648
 20
210.9192796780749
 30
0.0
 40
0.1005938202751372
100
AcDbArc
 50
245.6923804639129
 51
305.6178335841847
  0
ARC
  5
1DE
330
1F
100
AcDbEntity
  8
0
  6
Continuous
 62
     8
370
    25
100
AcDbCircle
 10
568.6096654332999
 20
252.0028853903286
 30
0.0
 40
0.0932694155493854
100
AcDbArc
 50
351.7420984553355
 51
56.94541246089016
  0
MTEXT
  5
308
330
1F
100
AcDbEntity
  8
寸法線
100
AcDbMText
 10
363.4799605709871
 20
193.3196167438273
 30
0.0
 40
11.66666666666667
 41
273.3522079092451
 71
     1
 72
     5
  1
{MPP-10/0300/COS45/R}
 73
     1
 44
1.0
1001
ACAD
1000
ACAD_MTEXT_DEFINED_HEIGHT_BEGIN
1070
    46
1040
11.66666666666667
1000
ACAD_MTEXT_DEFINED_HEIGHT_END
  0
LINE
  5
3F7
330
1F
100
AcDbEntity
  8
0
  6
Continuous
 62
     7
370
    25
100
AcDbLine
 10
348.1443337871009
 20
359.2983150663089
 30
0.0
 11
342.4570854642455
 21
362.5814936386725
 31
0.0
  0
ARC
  5
3F8
330
1F
100
AcDbEntity
  8
0
  6
Continuous
 62
     7
370
    25
100
AcDbCircle
 10
339.0336917761373
 20
333.2987446892698
 30
0.0
 40
0.2000000000001592
100
AcDbArc
 50
180.0
 51
240.0026882663228
  0
LINE
  5
3F9
330
1F
100
AcDbEntity
  8
0
  6
Continuous
 62
     7
370
    25
100
AcDbLine
 10
338.8336916748515
 20
364.0006784212742
 30
0.0
 11
338.8336916748515
 21
333.2987446105549
 31
0.0
  0
LINE
  5
3FA
330
1F
100
AcDbEntity
  8
0
  6
Continuous
 62
     7
370
    25
100
AcDbLine
 10
338.9337002194672
 20
333.1255351021803
 30
0.0
 11
339.7115176848475
 21
332.6765106371707
 31
0.0
  0
ARC
  5
3FB
330
1F
100
AcDbEntity
  8
0
  6
Continuous
 62
     7
370
    25
100
AcDbCircle
 10
356.7113613058009
 20
374.2057806139577
 30
0.0
 40
0.2000000000000692
100
AcDbArc
 50
60.00268826634286
 51
119.9973117336208
  0
LINE
  5
3FC
330
1F
100
AcDbEntity
  8
0
  6
Continuous
 62
     7
370
    25
100
AcDbLine
 10
356.6113696009585
 20
374.378990964741
 30
0.0
 11
355.3385775813224
 21
373.6442237717646
 31
0.0
  0
LINE
  5
3FD
330
1F
100
AcDbEntity
  8
0
  6
Continuous
 62
     7
370
    25
100
AcDbLine
 10
357.5891703228461
 20
373.9299662621254
 30
0.0
 11
356.8113528574659
 21
374.378990727135
 31
0.0
  0
LINE
  5
3FE
330
1F
100
AcDbEntity
  8
0
  6
Continuous
 62
     7
370
    25
100
AcDbLine
 10
345.9809307846808
 20
358.0494108498025
 30
0.0
 11
344.2013767477148
 21
359.2254272857797
 31
0.0
  0
LINE
  5
3FF
330
1F
100
AcDbEntity
  8
0
  6
Continuous
 62
     7
370
    25
100
AcDbLine
 10
342.4570854642455
 20
362.5814936386725
 30
0.0
 11
341.3964252832461
 21
363.1937997278619
 31
0.0
  0
LINE
  5
400
330
1F
100
AcDbEntity
  8
0
  6
Continuous
 62
     7
370
    25
100
AcDbLine
 10
340.2064918275128
 20
364.9086566078657
 30
0.0
 11
338.933699807877
 21
364.1738894148893
 31
0.0
  0
ARC
  5
401
330
1F
100
AcDbEntity
  8
0
  6
Continuous
 62
     7
370
    25
100
AcDbCircle
 10
339.0336917761373
 20
364.000679216174
 30
0.0
 40
0.2000000000001592
100
AcDbArc
 50
119.9973117337136
 51
180.0000000000163
  0
LINE
  5
402
330
1F
100
AcDbEntity
  8
0
  6
Continuous
 62
     7
370
    25
100
AcDbLine
 10
346.2840607973387
 20
358.2244032819739
 30
0.0
 11
345.8068404280924
 21
358.1644572872625
 31
0.0
  0
LINE
  5
403
330
1F
100
AcDbEntity
  8
0
  6
Continuous
 62
     7
370
    25
100
AcDbLine
 10
342.7206162901398
 20
347.5782465972194
 30
0.0
 11
342.5791949271854
 21
347.6598874122795
 31
0.0
  0
LINE
  5
404
330
1F
100
AcDbEntity
  8
0
  6
Continuous
 62
     7
370
    25
100
AcDbLine
 10
340.5793572583908
 20
344.1956928254606
 30
0.0
 11
340.7207786213453
 21
344.1140520104006
 31
0.0
  0
LINE
  5
405
330
1F
100
AcDbEntity
  8
0
  6
Continuous
 62
     7
370
    25
100
AcDbLine
 10
341.8225595561941
 20
346.4046109839772
 30
0.0
 11
342.1938358780152
 21
346.0702674223838
 31
0.0
  0
LINE
  5
406
330
1F
100
AcDbEntity
  8
0
  6
Continuous
 62
     7
370
    25
100
AcDbLine
 10
341.763123774079
 20
345.3243935225453
 30
0.0
 11
341.2879458806241
 21
345.4787051821611
 31
0.0
  0
LINE
  5
407
330
1F
100
AcDbEntity
  8
0
  6
Continuous
 62
     7
370
    25
100
AcDbLine
 10
355.0242744555879
 20
356.8581477740227
 30
0.0
 11
354.8828530926334
 21
356.9397885890827
 31
0.0
  0
LINE
  5
408
330
1F
100
AcDbEntity
  8
0
  6
Continuous
 62
     7
370
    25
100
AcDbLine
 10
352.8830154238388
 20
353.4755924813381
 30
0.0
 11
353.0244367867933
 21
353.3939516662781
 31
0.0
  0
LINE
  5
409
330
1F
100
AcDbEntity
  8
0
  6
Continuous
 62
     7
370
    25
100
AcDbLine
 10
354.1262177216421
 20
355.6845121607803
 30
0.0
 11
354.4974940434632
 21
355.3501678387241
 31
0.0
  0
LINE
  5
40A
330
1F
100
AcDbEntity
  8
0
  6
Continuous
 62
     7
370
    25
100
AcDbLine
 10
354.0667819395271
 20
354.6042939388856
 30
0.0
 11
353.5916033875277
 21
354.7586059787947
 31
0.0
  0
LINE
  5
40B
330
1F
100
AcDbEntity
  8
0
  6
Continuous
 62
     7
370
    25
100
AcDbLine
 10
357.7720213690526
 20
373.9200632544532
 30
0.0
 11
357.6306002530523
 21
373.8384225819568
 31
0.0
  0
LINE
  5
40C
330
1F
100
AcDbEntity
  8
0
  6
Continuous
 62
     7
370
    25
100
AcDbLine
 10
357.7720213690526
 20
373.9200632544532
 30
0.0
 11
357.7720213690526
 21
342.891513400522
 31
0.0
  0
LINE
  5
40D
330
1F
100
AcDbEntity
  8
0
  6
Continuous
 62
     7
370
    25
100
AcDbLine
 10
357.7720213690526
 20
342.891513400522
 30
0.0
 11
357.2091528413676
 21
342.5665763159698
 31
0.0
  0
LINE
  5
40E
330
1F
100
AcDbEntity
  8
0
  6
Continuous
 62
     7
370
    25
100
AcDbLine
 10
345.821916981422
 20
335.9928649794033
 30
0.0
 11
339.8115093439705
 21
332.5231305056775
 31
0.0
  0
LINE
  5
40F
330
1F
100
AcDbEntity
  8
0
  6
Continuous
 62
     7
370
    25
100
AcDbLine
 10
339.8115093439705
 20
332.5231305056775
 30
0.0
 11
339.8115093439705
 21
332.6864121309036
 31
0.0
  0
LINE
  5
410
330
1F
100
AcDbEntity
  8
0
  6
Continuous
 62
     7
370
    25
100
AcDbLine
 10
341.2257224796068
 20
364.3680882250815
 30
0.0
 11
341.2257224796068
 21
363.1430798466018
 31
0.0
  0
ARC
  5
411
330
1F
100
AcDbEntity
  8
0
  6
Continuous
 62
     7
370
    25
100
AcDbCircle
 10
342.4033789296636
 20
362.5020380130491
 30
0.0
 40
0.0959040577870503
100
AcDbArc
 50
352.7449273930191
 51
55.94401316887001
  0
LINE
  5
412
330
1F
100
AcDbEntity
  8
0
  6
Continuous
 62
     7
370
    25
100
AcDbLine
 10
342.4985151577872
 20
362.4899265970113
 30
0.0
 11
342.4985151577872
 21
361.591731708804
 31
0.0
  0
LINE
  5
413
330
1F
100
AcDbEntity
  8
0
  6
Continuous
 62
     7
370
    25
100
AcDbLine
 10
343.940278502915
 20
359.126576414674
 30
0.0
 11
342.4985146638789
 21
359.9588889626789
 31
0.0
  0
LINE
  5
414
330
1F
100
AcDbEntity
  8
0
  6
Continuous
 62
     7
370
    25
100
AcDbLine
 10
349.0760557278851
 20
359.8361873050738
 30
0.0
 11
341.2257224796068
 21
364.3680882250815
 31
0.0
  0
ARC
  5
415
330
1F
100
AcDbEntity
  8
0
  6
Continuous
 62
     7
370
    25
100
AcDbCircle
 10
356.8769833505085
 20
343.5994591843139
 30
0.0
 40
0.3073610213818488
100
AcDbArc
 50
182.6054851425398
 51
237.3945174100827
  0
ARC
  5
416
330
1F
100
AcDbEntity
  8
0
  6
Continuous
 62
     7
370
    25
100
AcDbCircle
 10
356.7113611739564
 20
343.3125441009497
 30
0.0
 40
0.3074048483892221
100
AcDbArc
 50
62.60971294835799
 51
117.3902292930312
  0
ARC
  5
417
330
1F
100
AcDbEntity
  8
0
  6
Continuous
 62
     7
370
    25
100
AcDbCircle
 10
356.5457389373788
 20
343.5994592189802
 30
0.0
 40
0.3073613642651613
100
AcDbArc
 50
302.6055705212148
 51
357.3944846941412
  0
LINE
  5
418
330
1F
100
AcDbEntity
  8
0
  6
Continuous
 62
     7
370
    25
100
AcDbLine
 10
356.5699400720528
 20
343.5854869754667
 30
0.0
 11
356.5699400720528
 21
374.2874207861859
 31
0.0
  0
ARC
  5
419
330
1F
100
AcDbEntity
  8
0
  6
Continuous
 62
     7
370
    25
100
AcDbCircle
 10
356.7113611739564
 20
374.0144779116688
 30
0.0
 40
0.3074048483893675
100
AcDbArc
 50
62.60971294837262
 51
117.3902292930166
  0
LINE
  5
41A
330
1F
100
AcDbEntity
  8
0
  6
Continuous
 62
     7
370
    25
100
AcDbLine
 10
356.8527825510076
 20
374.2874206436223
 30
0.0
 11
356.8527825510076
 21
343.585486832903
 31
0.0
  0
LINE
  5
41B
330
1F
100
AcDbEntity
  8
0
  6
Continuous
 62
     7
370
    25
100
AcDbLine
 10
356.7113614350073
 20
343.340538002155
 30
0.0
 11
350.7108276846363
 21
339.8765036021112
 31
0.0
  0
ELLIPSE
  5
41C
330
1F
100
AcDbEntity
  8
0
  6
Continuous
 62
     7
370
    25
100
AcDbEllipse
 10
350.7108277415367
 20
340.039811794447
 30
0.0
 11
-0.09741494644129034
 21
0.1746892004041456
 31
0.0
210
0.0
220
0.0
230
1.0
 40
0.5672183927596659
 41
0.7939066863094856
 42
2.364703013104338
  0
LINE
  5
41D
330
1F
100
AcDbEntity
  8
0
  6
Continuous
 62
     7
370
    25
100
AcDbLine
 10
350.5718748757699
 20
340.1228776413646
 30
0.0
 11
356.5699400720528
 21
343.5854869754667
 31
0.0
  0
LINE
  5
41E
330
1F
100
AcDbEntity
  8
0
  6
Continuous
 62
     7
370
    25
100
AcDbLine
 10
357.4891789003876
 20
342.8915135371455
 30
0.0
 11
356.7113614350073
 21
343.340538002155
 31
0.0
  0
LINE
  5
41F
330
1F
100
AcDbEntity
  8
0
  6
Continuous
 62
     7
370
    25
100
AcDbLine
 10
356.8527825510076
 20
343.585486832903
 30
0.0
 11
357.6306000163879
 21
343.1364623678935
 31
0.0
  0
ARC
  5
420
330
1F
100
AcDbEntity
  8
0
  6
Continuous
 62
     7
370
    25
100
AcDbCircle
 10
357.3235564027588
 20
343.1504347539708
 30
0.0
 40
0.3073613642653795
100
AcDbArc
 50
302.6055705212391
 51
357.3944846941326
  0
LINE
  5
421
330
1F
100
AcDbEntity
  8
0
  6
Continuous
 62
     7
370
    25
100
AcDbLine
 10
351.2228652197016
 20
361.0755145806005
 30
0.0
 11
344.2393451313226
 21
357.0440142464768
 31
0.0
  0
LINE
  5
422
330
1F
100
AcDbEntity
  8
0
  6
Continuous
 62
     7
370
    25
100
AcDbLine
 10
351.2228652197016
 20
363.1675145339357
 30
0.0
 11
351.2228652197016
 21
361.0755145806005
 31
0.0
  0
ELLIPSE
  5
423
330
1F
100
AcDbEntity
  8
0
  6
Continuous
 62
     7
370
    25
100
AcDbEllipse
 10
351.3643726588815
 20
363.249006401233
 30
0.0
 11
0.09999184349464937
 21
0.1732097896633036
 31
0.0
210
0.0
220
0.0
230
1.0
 40
0.578085210186674
 41
0.7859256885265875
 42
2.35550404014995
  0
LINE
  5
424
330
1F
100
AcDbEntity
  8
0
  6
Continuous
 62
     7
370
    25
100
AcDbLine
 10
354.0243553742364
 20
364.9479894004617
 30
0.0
 11
351.3642003956436
 21
363.4123146190769
 31
0.0
  0
LINE
  5
425
330
1F
100
AcDbEntity
  8
0
  6
Continuous
 62
     7
370
    25
100
AcDbLine
 10
354.0243553742364
 20
370.3682647038076
 30
0.0
 11
354.0243553742364
 21
364.9479894004617
 31
0.0
  0
ARC
  5
426
330
1F
100
AcDbEntity
  8
0
  6
Continuous
 62
     7
370
    25
100
AcDbCircle
 10
354.3314041064856
 20
370.3542890301846
 30
0.0
 40
0.3073666270580666
100
AcDbArc
 50
122.6059299306699
 51
177.3939158759433
  0
LINE
  5
427
330
1F
100
AcDbEntity
  8
0
  6
Continuous
 62
     7
370
    25
100
AcDbLine
 10
355.2971480524168
 20
371.2663401619139
 30
0.0
 11
354.1657771487812
 21
370.6132136414339
 31
0.0
  0
LINE
  5
428
330
1F
100
AcDbEntity
  8
0
  6
Continuous
 62
     7
370
    25
100
AcDbLine
 10
355.2971480524168
 20
373.5526535932095
 30
0.0
 11
355.2971480524168
 21
371.2663401619139
 31
0.0
  0
LINE
  5
429
330
1F
100
AcDbEntity
  8
0
  6
Continuous
 62
     7
370
    25
100
AcDbLine
 10
356.5699400720528
 20
374.2874207861859
 30
0.0
 11
355.2971480524168
 21
373.5526535932095
 31
0.0
  0
LINE
  5
42A
330
1F
100
AcDbEntity
  8
0
  6
Continuous
 62
     7
370
    25
100
AcDbLine
 10
350.5718748757699
 20
340.1228776413646
 30
0.0
 11
350.5718748757699
 21
346.9144193568384
 31
0.0
  0
LINE
  5
42B
330
1F
100
AcDbEntity
  8
0
  6
Continuous
 62
     7
370
    25
100
AcDbLine
 10
350.5718748757699
 20
346.9144193568384
 30
0.0
 11
344.8903354752542
 21
343.6345364751908
 31
0.0
  0
LINE
  5
42C
330
1F
100
AcDbEntity
  8
0
  6
Continuous
 62
     7
370
    25
100
AcDbLine
 10
344.8903354752542
 20
336.842994759717
 30
0.0
 11
344.8903354752542
 21
343.6345364751908
 31
0.0
  0
LINE
  5
42D
330
1F
100
AcDbEntity
  8
0
  6
Continuous
 62
     7
370
    25
100
AcDbLine
 10
338.8922702789714
 20
333.3803854256149
 30
0.0
 11
344.8903354752542
 21
336.842994759717
 31
0.0
  0
LINE
  5
42E
330
1F
100
AcDbEntity
  8
0
  6
Continuous
 62
     7
370
    25
100
AcDbLine
 10
338.8922702789714
 20
364.0823192363342
 30
0.0
 11
338.8922702789714
 21
333.3803854256149
 31
0.0
  0
LINE
  5
42F
330
1F
100
AcDbEntity
  8
0
  6
Continuous
 62
     7
370
    25
100
AcDbLine
 10
340.1650622986074
 20
364.8170864293106
 30
0.0
 11
338.8922702789714
 21
364.0823192363342
 31
0.0
  0
LINE
  5
430
330
1F
100
AcDbEntity
  8
0
  6
Continuous
 62
     7
370
    25
100
AcDbLine
 10
340.1650622986074
 20
362.530772998015
 30
0.0
 11
340.1650622986074
 21
364.8170864293106
 31
0.0
  0
LINE
  5
431
330
1F
100
AcDbEntity
  8
0
  6
Continuous
 62
     7
370
    25
100
AcDbLine
 10
341.296433202243
 20
363.183899518495
 30
0.0
 11
340.1650622986074
 21
362.530772998015
 31
0.0
  0
ARC
  5
432
330
1F
100
AcDbEntity
  8
0
  6
Continuous
 62
     7
370
    25
100
AcDbCircle
 10
341.3516391986599
 20
363.1162164117535
 30
0.0
 40
0.0873424580519257
100
AcDbArc
 50
350.7871677798608
 51
129.2025425586372
  0
LINE
  5
433
330
1F
100
AcDbEntity
  8
0
  6
Continuous
 62
     7
370
    25
100
AcDbLine
 10
341.4378549767879
 20
357.6819573828548
 30
0.0
 11
341.4378549767879
 21
363.1022326862008
 31
0.0
  0
LINE
  5
434
330
1F
100
AcDbEntity
  8
0
  6
Continuous
 62
     7
370
    25
100
AcDbLine
 10
344.0980099553805
 20
359.2176321642396
 30
0.0
 11
341.4378549767879
 21
357.6819573828548
 31
0.0
  0
ELLIPSE
  5
435
330
1F
100
AcDbEntity
  8
0
  6
Continuous
 62
     7
370
    25
100
AcDbEllipse
 10
344.097837710582
 20
359.0541250661395
 30
0.0
 11
0.100113764770299
 21
0.1734208491336062
 31
0.0
210
0.0
220
0.0
230
1.0
 40
0.576678736737615
 41
5.498315064855807
 42
7.06789341647892
  0
LINE
  5
436
330
1F
100
AcDbEntity
  8
0
  6
Continuous
 62
     7
370
    25
100
AcDbLine
 10
344.2393451313226
 20
357.0440142464768
 30
0.0
 11
344.2393451313226
 21
359.1360141998119
 31
0.0
  0
LWPOLYLINE
  5
437
330
1F
100
AcDbEntity
  8
0
  6
Continuous
 62
     7
370
    25
100
AcDbPolyline
 90
       19
 70
   128
 43
0.0
 10
355.4385691684172
 20
356.1057394533492
 10
355.3447529178099
 20
356.6659820288331
 10
355.0746199362688
 20
357.0503327738289
 10
354.6607517133266
 20
357.2124342353492
 10
354.153067239777
 20
357.1327332702582
 10
353.6128012766952
 20
356.8208443685129
 10
353.1051168031457
 20
356.3143853172103
 10
352.6912485802033
 20
355.6744417766355
 10
352.4211155986623
 20
354.9782021298944
 10
352.3272993480551
 20
354.3096416170716
 10
352.4211155986623
 20
353.7493990415877
 10
352.6912485802033
 20
353.365047536129
 10
353.1051168031457
 20
353.2029468350716
 10
353.6128012766952
 20
353.2826470396997
 10
354.153067239777
 20
353.5945359414449
 10
354.6607517133266
 20
354.1009957532104
 10
355.0746199362688
 20
354.7409385333224
 10
355.3447529178099
 20
355.4371789405263
 10
355.4385691684172
 20
356.1057394533492
  0
LWPOLYLINE
  5
438
330
1F
100
AcDbEntity
  8
0
  6
Continuous
 62
     7
370
    25
100
AcDbPolyline
 90
       19
 70
   128
 43
0.0
 10
343.1349110029691
 20
346.8258382765459
 10
343.0410947523619
 20
347.3860816124928
 10
342.7709617708209
 20
347.7704323574886
 10
342.3570935478785
 20
347.9325338190088
 10
341.8494090743289
 20
347.8528336143808
 10
341.3091431112472
 20
347.5409447126355
 10
340.8014586376975
 20
347.03448490087
 10
340.3875904147553
 20
346.3945413602952
 10
340.1174574332143
 20
345.6983017135541
 10
340.0236411826071
 20
345.0297404402684
 10
340.1174574332143
 20
344.4694986252473
 10
340.3875904147553
 20
344.0851478802515
 10
340.8014586376975
 20
343.9230464187313
 10
341.3091431112472
 20
344.0027466233593
 10
341.8494090743289
 20
344.3146355251046
 10
342.3570935478785
 20
344.8210953368701
 10
342.7709617708209
 20
345.4610388774449
 10
343.0410947523619
 20
346.157278524186
 10
343.1349110029691
 20
346.8258382765459
  0
LINE
  5
439
330
1F
100
AcDbEntity
  8
0
  6
Continuous
 62
     7
370
    25
100
AcDbLine
 10
357.6306000163879
 20
373.8383961786127
 30
0.0
 11
356.8527825510076
 21
374.2874206436223
 31
0.0
  0
LINE
  5
43A
330
1F
100
AcDbEntity
  8
0
  6
Continuous
 62
     7
370
    25
100
AcDbLine
 10
357.6306000163879
 20
343.1364623678935
 30
0.0
 11
357.6306000163879
 21
373.8383961786127
 31
0.0
  0
LINE
  5
43B
330
1F
100
AcDbEntity
  8
0
  6
Continuous
 62
     7
370
    25
100
AcDbLine
 10
351.2666392082147
 20
339.5442402919498
 30
0.0
 11
345.6097846900362
 21
336.2786076895497
 31
0.0
  0
LINE
  5
43C
330
1F
100
AcDbEntity
  8
0
  6
Continuous
 62
     7
370
    25
100
AcDbLine
 10
351.2666392082147
 20
339.5442402919498
 30
0.0
 11
350.7108276846363
 21
339.8765036021112
 31
0.0
  0
LINE
  5
43D
330
1F
100
AcDbEntity
  8
0
  6
Continuous
 62
     7
370
    25
100
AcDbLine
 10
357.6306002530523
 20
342.8098727280256
 30
0.0
 11
357.4891789003876
 21
342.8915135371455
 31
0.0
  0
LINE
  5
43E
330
1F
100
AcDbEntity
  8
0
  6
Continuous
 62
     7
370
    25
100
AcDbLine
 10
357.6306002530523
 20
342.8098727280256
 30
0.0
 11
339.9529304599708
 21
332.6047711781739
 31
0.0
  0
LINE
  5
43F
330
1F
100
AcDbEntity
  8
0
  6
Continuous
 62
     7
370
    25
100
AcDbLine
 10
339.8115091073061
 20
332.6864119872937
 30
0.0
 11
339.9529304599708
 21
332.6047711781739
 31
0.0
  0
LINE
  5
440
330
1F
100
AcDbEntity
  8
0
  6
Continuous
 62
     7
370
    25
100
AcDbLine
 10
339.0336916419259
 20
333.1354364523033
 30
0.0
 11
339.8115091073061
 21
332.6864119872937
 31
0.0
  0
LINE
  5
441
330
1F
100
AcDbEntity
  8
0
  6
Continuous
 62
     7
370
    25
100
AcDbLine
 10
345.0342253922969
 20
336.5994708523471
 30
0.0
 11
339.0336916419259
 21
333.1354364523033
 31
0.0
  0
LINE
  5
442
330
1F
100
AcDbEntity
  8
0
  6
Continuous
 62
     7
370
    25
100
AcDbLine
 10
345.6097846900362
 20
336.2786076895497
 30
0.0
 11
345.0342253922969
 21
336.5994708523471
 31
0.0
  0
LINE
  5
443
330
1F
100
AcDbEntity
  8
0
  6
Continuous
 62
     7
370
    25
100
AcDbLine
 10
357.6306002530523
 20
342.8098727280256
 30
0.0
 11
357.6306002530523
 21
343.1364625233855
 31
0.0
  0
LINE
  5
444
330
1F
100
AcDbEntity
  8
0
  6
Continuous
 62
     7
370
    25
100
AcDbLine
 10
357.6306002530523
 20
373.8383982471442
 30
0.0
 11
357.6306002530523
 21
373.8384225819568
 31
0.0
  0
LINE
  5
445
330
1F
100
AcDbEntity
  8
0
  6
Continuous
 62
     7
370
    25
100
AcDbLine
 10
350.6154732386944
 20
339.9780277512817
 30
0.0
 11
345.3999452859909
 21
336.9671675521472
 31
0.0
  0
LINE
  5
446
330
1F
100
AcDbEntity
  8
0
  6
Continuous
 62
     7
370
    25
100
AcDbLine
 10
345.3999452859909
 20
336.9671675521472
 30
0.0
 11
345.6097846900362
 21
336.2786076895497
 31
0.0
  0
LINE
  5
447
330
1F
100
AcDbEntity
  8
0
  6
Continuous
 62
     7
370
    25
100
AcDbLine
 10
350.5718749580882
 20
340.3569724020883
 30
0.0
 11
345.3999452859909
 21
337.371280954616
 31
0.0
  0
LINE
  5
448
330
1F
100
AcDbEntity
  8
0
  6
Continuous
 62
     7
370
    25
100
AcDbLine
 10
345.3999452859909
 20
337.371280954616
 30
0.0
 11
345.3999452859909
 21
336.9671675521472
 31
0.0
  0
LINE
  5
449
330
1F
100
AcDbEntity
  8
0
  6
Continuous
 62
     7
370
    25
100
AcDbLine
 10
350.5718749580882
 20
340.9327080204227
 30
0.0
 11
345.3999452859909
 21
337.9470165729504
 31
0.0
  0
LINE
  5
44A
330
1F
100
AcDbEntity
  8
0
  6
Continuous
 62
     7
370
    25
100
AcDbLine
 10
345.3999452859909
 20
337.9470165729504
 30
0.0
 11
345.5491516740055
 21
337.4574159703499
 31
0.0
  0
LINE
  5
44B
330
1F
100
AcDbEntity
  8
0
  6
Continuous
 62
     7
370
    25
100
AcDbLine
 10
350.5718749580882
 20
341.3368214228916
 30
0.0
 11
345.3999452859909
 21
338.3511299754193
 31
0.0
  0
LINE
  5
44C
330
1F
100
AcDbEntity
  8
0
  6
Continuous
 62
     7
370
    25
100
AcDbLine
 10
345.3999452859909
 20
338.3511299754193
 30
0.0
 11
345.3999452859909
 21
337.9470165729504
 31
0.0
  0
LINE
  5
44D
330
1F
100
AcDbEntity
  8
0
  6
Continuous
 62
     7
370
    25
100
AcDbLine
 10
350.5718749580882
 20
341.912557041226
 30
0.0
 11
345.3999452859909
 21
338.9268655937537
 31
0.0
  0
LINE
  5
44E
330
1F
100
AcDbEntity
  8
0
  6
Continuous
 62
     7
370
    25
100
AcDbLine
 10
345.3999452859909
 20
338.9268655937537
 30
0.0
 11
345.5491516740055
 21
338.4372649911531
 31
0.0
  0
LINE
  5
44F
330
1F
100
AcDbEntity
  8
0
  6
Continuous
 62
     7
370
    25
100
AcDbLine
 10
350.5718749580882
 20
342.3166702535791
 30
0.0
 11
345.3999452859909
 21
339.3309788061068
 31
0.0
  0
LINE
  5
450
330
1F
100
AcDbEntity
  8
0
  6
Continuous
 62
     7
370
    25
100
AcDbLine
 10
345.3999452859909
 20
339.3309788061068
 30
0.0
 11
345.3999452859909
 21
338.9268655937537
 31
0.0
  0
LINE
  5
451
330
1F
100
AcDbEntity
  8
0
  6
Continuous
 62
     7
370
    25
100
AcDbLine
 10
350.5718749580882
 20
342.8924060620291
 30
0.0
 11
345.3999452859909
 21
339.9067146145569
 31
0.0
  0
LINE
  5
452
330
1F
100
AcDbEntity
  8
0
  6
Continuous
 62
     7
370
    25
100
AcDbLine
 10
345.3999452859909
 20
339.9067146145569
 30
0.0
 11
345.5491516740055
 21
339.4171138218406
 31
0.0
  0
LINE
  5
453
330
1F
100
AcDbEntity
  8
0
  6
Continuous
 62
     7
370
    25
100
AcDbLine
 10
350.5718749580882
 20
343.296519464498
 30
0.0
 11
345.3999452859909
 21
340.3108280170257
 31
0.0
  0
LINE
  5
454
330
1F
100
AcDbEntity
  8
0
  6
Continuous
 62
     7
370
    25
100
AcDbLine
 10
345.3999452859909
 20
340.3108280170257
 30
0.0
 11
345.3999452859909
 21
339.9067146145569
 31
0.0
  0
LINE
  5
455
330
1F
100
AcDbEntity
  8
0
  6
Continuous
 62
     7
370
    25
100
AcDbLine
 10
350.5718749580882
 20
343.8722548927167
 30
0.0
 11
345.3999452859909
 21
340.8865634452444
 31
0.0
  0
LINE
  5
456
330
1F
100
AcDbEntity
  8
0
  6
Continuous
 62
     7
370
    25
100
AcDbLine
 10
345.3999452859909
 20
340.8865634452444
 30
0.0
 11
345.5491516740055
 21
340.3969628426438
 31
0.0
  0
LINE
  5
457
330
1F
100
AcDbEntity
  8
0
  6
Continuous
 62
     7
370
    25
100
AcDbLine
 10
350.5718749580882
 20
344.2763682951855
 30
0.0
 11
345.3999452859909
 21
341.2906768477132
 31
0.0
  0
LINE
  5
458
330
1F
100
AcDbEntity
  8
0
  6
Continuous
 62
     7
370
    25
100
AcDbLine
 10
345.3999452859909
 20
341.2906768477132
 30
0.0
 11
345.3999452859909
 21
340.8865634452444
 31
0.0
  0
LINE
  5
459
330
1F
100
AcDbEntity
  8
0
  6
Continuous
 62
     7
370
    25
100
AcDbLine
 10
350.5718749580882
 20
344.8521037234042
 30
0.0
 11
345.3999452859909
 21
341.8664122759319
 31
0.0
  0
LINE
  5
45A
330
1F
100
AcDbEntity
  8
0
  6
Continuous
 62
     7
370
    25
100
AcDbLine
 10
345.3999452859909
 20
341.8664122759319
 30
0.0
 11
345.5491516740055
 21
341.3768116733313
 31
0.0
  0
LINE
  5
45B
330
1F
100
AcDbEntity
  8
0
  6
Continuous
 62
     7
370
    25
100
AcDbLine
 10
350.5718749580882
 20
345.256217125873
 30
0.0
 11
345.3999452859909
 21
342.2705256784007
 31
0.0
  0
LINE
  5
45C
330
1F
100
AcDbEntity
  8
0
  6
Continuous
 62
     7
370
    25
100
AcDbLine
 10
345.3999452859909
 20
342.2705256784007
 30
0.0
 11
345.3999452859909
 21
341.8664122759319
 31
0.0
  0
LINE
  5
45D
330
1F
100
AcDbEntity
  8
0
  6
Continuous
 62
     7
370
    25
100
AcDbLine
 10
344.8903354752542
 20
343.6345364751908
 30
0.0
 11
345.6097846900362
 21
343.2192049677682
 31
0.0
  0
LINE
  5
45E
330
1F
100
AcDbEntity
  8
0
  6
Continuous
 62
     7
370
    25
100
AcDbLine
 10
345.6097846900362
 20
343.2192049677682
 30
0.0
 11
345.6097846900362
 21
342.3916635460882
 31
0.0
  0
ELLIPSE
  5
45F
330
1F
100
AcDbEntity
  8
0
  6
Continuous
 62
     7
370
    25
100
AcDbEllipse
 10
345.0342253404013
 20
336.7627789818763
 30
0.0
 11
-0.1026525863727556
 21
0.1716643463722676
 31
0.0
210
0.0
220
0.0
230
1.0
 40
0.5873687162544591
 41
0.7764427606539486
 42
2.347239087449917
  0
ARC
  5
460
330
1F
100
AcDbEntity
  8
0
  6
Continuous
 62
     7
370
    25
100
AcDbCircle
 10
339.1993135574265
 20
333.394357634462
 30
0.0
 40
0.3073610213812044
100
AcDbArc
 50
182.6054851425027
 51
237.3945174101555
  0
LINE
  5
461
330
1F
100
AcDbEntity
  8
0
  6
Continuous
 62
     7
370
    25
100
AcDbLine
 10
350.5718749169289
 20
346.0837586820132
 30
0.0
 11
345.6097846900362
 21
343.2192049677682
 31
0.0
  0
ARC
  5
462
330
1F
100
AcDbEntity
  8
0
  6
Continuous
 62
     7
370
    25
100
AcDbCircle
 10
339.7529256782718
 20
332.7681866687067
 30
0.0
 40
0.1005938202754376
100
AcDbArc
 50
245.692380463992
 51
305.6178335840613
  0
ARC
  5
463
330
1F
100
AcDbEntity
  8
0
  6
Continuous
 62
     7
370
    25
100
AcDbCircle
 10
355.3911371319735
 20
373.5652868376013
 30
0.0
 40
0.0948343078203566
100
AcDbArc
 50
123.6573559294141
 51
187.6553488419095
  0
ARC
  5
464
330
1F
100
AcDbEntity
  8
0
  6
Continuous
 62
     7
370
    25
100
AcDbCircle
 10
357.5354327054339
 20
373.8504961711018
 30
0.0
 40
0.0959334503312375
100
AcDbArc
 50
352.7540398238765
 51
55.93347109226874
  0
LINE
  5
465
330
1F
100
AcDbEntity
  8
0
  6
Continuous
 62
     7
370
    25
100
AcDbLine
 10
342.4985151577872
 20
362.4899265970113
 30
0.0
 11
341.4378549767879
 21
363.1022326862008
 31
0.0
  0
LINE
  5
466
330
1F
100
AcDbEntity
  8
0
  6
Continuous
 62
     7
370
    25
100
AcDbLine
 10
342.4985151577872
 20
358.2942642314416
 30
0.0
 11
342.4985151577872
 21
362.4899265970113
 31
0.0
  0
ARC
  5
467
330
1F
100
AcDbEntity
  8
0
  6
Continuous
 62
     7
370
    25
100
AcDbCircle
 10
342.4005134836146
 20
362.5007415361779
 30
0.0
 40
0.0985966076992727
100
AcDbArc
 50
353.7026260116294
 51
54.98631455030219
  0
ARC
  5
468
330
1F
100
AcDbEntity
  8
0
  6
Continuous
 62
     7
370
    25
100
AcDbCircle
 10
340.251276135171
 20
364.8310734357262
 30
0.0
 40
0.0873410668786025
100
AcDbArc
 50
50.79541784795769
 51
189.2151606215608
  0
LINE
  5
469
330
1F
100
AcDbEntity
  8
0
  6
Continuous
 62
     7
370
    25
100
AcDbLine
 10
340.3064836615618
 20
364.8987534992109
 30
0.0
 11
341.2257224796068
 21
364.3680882250815
 31
0.0
  0
ARC
  5
46A
330
1F
100
AcDbEntity
  8
0
  6
Continuous
 62
     7
370
    25
100
AcDbCircle
 10
341.1345859760026
 20
344.9316721634449
 30
0.0
 40
0.9163728724884274
100
AcDbArc
 50
243.1554817504582
 51
304.3702044266373
  0
ARC
  5
46B
330
1F
100
AcDbEntity
  8
0
  6
Continuous
 62
     7
370
    25
100
AcDbCircle
 10
342.1828017699724
 20
346.7929255193966
 30
0.0
 40
0.9518264828086013
100
AcDbArc
 50
356.8895739738392
 51
55.5953333894276
  0
LWPOLYLINE
  5
46C
330
1F
100
AcDbEntity
  8
0
  6
Continuous
 62
     7
370
    25
100
AcDbPolyline
 90
       18
 70
   128
 43
0.0
 10
341.5792760927879
 20
344.2947089878785
 10
341.0684036052754
 20
344.1100663440999
 10
340.6265268258639
 20
344.1709182218694
 10
340.3133243749565
 20
344.4690452616684
 10
340.1710952248449
 20
344.9641826878349
 10
340.2190491188272
 20
345.5894619562982
 10
340.4507092716674
 20
346.2604331300327
 10
340.8347888923356
 20
346.8864804855023
 10
341.3194150884826
 20
347.3830511200719
 10
341.8391370970936
 20
347.6830802493433
 10
342.3237636225128
 20
347.7460473008395
 10
342.7078429139088
 20
347.5634486462335
 10
342.939503066749
 20
347.159946591728
 10
342.9874569607312
 20
346.59003371075
 10
342.8452281398918
 20
345.9306821933488
 10
342.5320256889844
 20
345.2709393009418
 10
342.0901492388452
 20
344.6999075432368
 10
341.5792760927879
 20
344.2947089878785
  0
LINE
  5
46D
330
1F
100
AcDbEntity
  8
0
  6
Continuous
 62
     7
370
    25
100
AcDbLine
 10
341.7631239387152
 20
346.9321173489616
 30
0.0
 11
341.3954282468609
 21
346.7198511442675
 31
0.0
  0
LINE
  5
46E
330
1F
100
AcDbEntity
  8
0
  6
Continuous
 62
     7
370
    25
100
AcDbLine
 10
341.3954282468609
 20
346.7198511442675
 30
0.0
 11
341.3954282468609
 21
346.3581400119178
 31
0.0
  0
ELLIPSE
  5
46F
330
1F
100
AcDbEntity
  8
0
  6
Continuous
 62
     7
370
    25
100
AcDbEllipse
 10
341.1104616134226
 20
346.1985189097176
 30
0.0
 11
0.1999830001077498
 21
0.3464199758967652
 31
0.0
210
0.0
220
0.0
230
1.0
 40
0.5860215324408652
 41
3.934333415640071
 42
5.490277059489092
  0
LINE
  5
470
330
1F
100
AcDbEntity
  8
0
  6
Continuous
 62
     7
370
    25
100
AcDbLine
 10
341.1146940158305
 20
345.8718933013134
 30
0.0
 11
340.8014586376975
 21
345.6910663665267
 31
0.0
  0
LINE
  5
471
330
1F
100
AcDbEntity
  8
0
  6
Continuous
 62
     7
370
    25
100
AcDbLine
 10
340.8014586376975
 20
345.6910663665267
 30
0.0
 11
340.8014586376975
 21
345.2664649530745
 31
0.0
  0
LINE
  5
472
330
1F
100
AcDbEntity
  8
0
  6
Continuous
 62
     7
370
    25
100
AcDbLine
 10
340.8014586376975
 20
345.2664649530745
 30
0.0
 11
341.1146940158305
 21
345.4472918878612
 31
0.0
  0
ELLIPSE
  5
473
330
1F
100
AcDbEntity
  8
0
  6
Continuous
 62
     7
370
    25
100
AcDbEllipse
 10
341.1104616134226
 20
345.1157793748466
 30
0.0
 11
0.2029770344754525
 21
0.3516029848150879
 31
0.0
210
0.0
220
0.0
230
1.0
 40
0.5688689412911379
 41
5.505134574337518
 42
7.061078218187497
  0
LINE
  5
474
330
1F
100
AcDbEntity
  8
0
  6
Continuous
 62
     7
370
    25
100
AcDbLine
 10
341.3954282468609
 20
345.2851740211281
 30
0.0
 11
341.3954282468609
 21
344.9234613678527
 31
0.0
  0
LINE
  5
475
330
1F
100
AcDbEntity
  8
0
  6
Continuous
 62
     7
370
    25
100
AcDbLine
 10
341.3954282468609
 20
344.9234613678527
 30
0.0
 11
341.7631239387152
 21
345.1357275725469
 31
0.0
  0
LINE
  5
476
330
1F
100
AcDbEntity
  8
0
  6
Continuous
 62
     7
370
    25
100
AcDbLine
 10
341.7631239387152
 20
345.1357275725469
 30
0.0
 11
341.7631239387152
 21
345.4974402258223
 31
0.0
  0
ELLIPSE
  5
477
330
1F
100
AcDbEntity
  8
0
  6
Continuous
 62
     7
370
    25
100
AcDbEllipse
 10
342.0480907633948
 20
345.6570611616187
 30
0.0
 11
0.1999830001077498
 21
0.3464199758967652
 31
0.0
210
0.0
220
0.0
230
1.0
 40
0.5860215324407941
 41
0.7927407620495394
 42
2.348684405899163
  0
LINE
  5
478
330
1F
100
AcDbEntity
  8
0
  6
Continuous
 62
     7
370
    25
100
AcDbLine
 10
342.0438581697456
 20
345.9836869364267
 30
0.0
 11
342.3570935478785
 21
346.1645138712133
 31
0.0
  0
LINE
  5
479
330
1F
100
AcDbEntity
  8
0
  6
Continuous
 62
     7
370
    25
100
AcDbLine
 10
342.3570935478785
 20
346.1645138712133
 30
0.0
 11
342.3570935478785
 21
346.5891152846656
 31
0.0
  0
LINE
  5
47A
330
1F
100
AcDbEntity
  8
0
  6
Continuous
 62
     7
370
    25
100
AcDbLine
 10
342.3570935478785
 20
346.5891152846656
 30
0.0
 11
342.0438581697456
 21
346.4082883498789
 31
0.0
  0
ELLIPSE
  5
47B
330
1F
100
AcDbEntity
  8
0
  6
Continuous
 62
     7
370
    25
100
AcDbEllipse
 10
342.0480907633948
 20
346.7398006964898
 30
0.0
 11
0.2029770344756799
 21
0.3516029848150879
 31
0.0
210
0.0
220
0.0
230
1.0
 40
0.5688689412909085
 41
2.363541920748405
 42
3.91948556459887
  0
LINE
  5
47C
330
1F
100
AcDbEntity
  8
0
  6
Continuous
 62
     7
370
    25
100
AcDbLine
 10
341.7631239387152
 20
346.570406216612
 30
0.0
 11
341.7631239387152
 21
346.9321173489616
 31
0.0
  0
LINE
  5
47D
330
1F
100
AcDbEntity
  8
0
  6
Continuous
 62
     7
370
    25
100
AcDbLine
 10
341.7697623966279
 20
346.5037464779308
 30
0.0
 11
341.3954282468609
 21
346.7198511442675
 31
0.0
  0
LINE
  5
47E
330
1F
100
AcDbEntity
  8
0
  6
Continuous
 62
     7
370
    25
100
AcDbLine
 10
341.1758775750696
 20
345.4749112306914
 30
0.0
 11
340.8014586376975
 21
345.6910663665267
 31
0.0
  0
ARC
  5
47F
330
1F
100
AcDbEntity
  8
0
  6
Continuous
 62
     7
370
    25
100
AcDbCircle
 10
353.4382433506748
 20
354.2115650578431
 30
0.0
 40
0.9163664825701455
100
AcDbArc
 50
243.155334958766
 51
304.370537587344
  0
ARC
  5
480
330
1F
100
AcDbEntity
  8
0
  6
Continuous
 62
     7
370
    25
100
AcDbCircle
 10
354.4864588527936
 20
356.0728261624845
 30
0.0
 40
0.9518275348812759
100
AcDbArc
 50
356.8896095899128
 51
55.59529777335274
  0
LWPOLYLINE
  5
481
330
1F
100
AcDbEntity
  8
0
  6
Continuous
 62
     7
370
    25
100
AcDbPolyline
 90
       18
 70
   128
 43
0.0
 10
353.882934258236
 20
353.574608643756
 10
353.3720611121789
 20
353.3899663802706
 10
352.9301846620399
 20
353.4508176876621
 10
352.6169822111322
 20
353.748944727461
 10
352.474753390293
 20
354.2440831041752
 10
352.5227072842754
 20
354.8693623726385
 10
352.7543674371154
 20
355.5403343068359
 10
353.1384467285114
 20
356.1663807117578
 10
353.6230732539306
 20
356.6629515364122
 10
354.1427952625416
 20
356.9629806656837
 10
354.6274214586884
 20
357.025947527095
 10
355.0115010793567
 20
356.8433498230367
 10
355.2431612321969
 20
356.4398470080683
 10
355.2911151261792
 20
355.8699341270903
 10
355.1488859760677
 20
355.2105816591413
 10
354.8356835251601
 20
354.5508387667344
 10
354.3938067457487
 20
353.9798075794076
 10
353.882934258236
 20
353.574608643756
  0
LINE
  5
482
330
1F
100
AcDbEntity
  8
0
  6
Continuous
 62
     7
370
    25
100
AcDbLine
 10
354.0667821041631
 20
356.2120185257648
 30
0.0
 11
353.699086412309
 21
355.9997523210707
 31
0.0
  0
LINE
  5
483
330
1F
100
AcDbEntity
  8
0
  6
Continuous
 62
     7
370
    25
100
AcDbLine
 10
353.699086412309
 20
355.9997523210707
 30
0.0
 11
353.699086412309
 21
355.6380396677952
 31
0.0
  0
ELLIPSE
  5
484
330
1F
100
AcDbEntity
  8
0
  6
Continuous
 62
     7
370
    25
100
AcDbEllipse
 10
353.4141196060686
 20
355.4784192688873
 30
0.0
 11
0.1999830001076361
 21
0.3464199758967653
 31
0.0
210
0.0
220
0.0
230
1.0
 40
0.5860215324411946
 41
3.934333415638707
 42
5.490277059489189
  0
LINE
  5
485
330
1F
100
AcDbEntity
  8
0
  6
Continuous
 62
     7
370
    25
100
AcDbLine
 10
353.4183521812785
 20
355.1517937176537
 30
0.0
 11
353.1051168031457
 21
354.970966782867
 31
0.0
  0
LINE
  5
486
330
1F
100
AcDbEntity
  8
0
  6
Continuous
 62
     7
370
    25
100
AcDbLine
 10
353.1051168031457
 20
354.970966782867
 30
0.0
 11
353.1051168031457
 21
354.5463653694149
 31
0.0
  0
LINE
  5
487
330
1F
100
AcDbEntity
  8
0
  6
Continuous
 62
     7
370
    25
100
AcDbLine
 10
353.1051168031457
 20
354.5463653694149
 30
0.0
 11
353.4183521812785
 21
354.7271923042015
 31
0.0
  0
ELLIPSE
  5
488
330
1F
100
AcDbEntity
  8
0
  6
Continuous
 62
     7
370
    25
100
AcDbEllipse
 10
353.4141196060686
 20
354.3956797340162
 30
0.0
 11
0.2029770344754525
 21
0.3516029848151447
 31
0.0
210
0.0
220
0.0
230
1.0
 40
0.5688689412913113
 41
5.505134574337729
 42
7.061078218187667
  0
LINE
  5
489
330
1F
100
AcDbEntity
  8
0
  6
Continuous
 62
     7
370
    25
100
AcDbLine
 10
353.699086412309
 20
354.5650751979314
 30
0.0
 11
353.699086412309
 21
354.203362544656
 31
0.0
  0
LINE
  5
48A
330
1F
100
AcDbEntity
  8
0
  6
Continuous
 62
     7
370
    25
100
AcDbLine
 10
353.699086412309
 20
354.203362544656
 30
0.0
 11
354.0667821041631
 21
354.4156287493502
 31
0.0
  0
LINE
  5
48B
330
1F
100
AcDbEntity
  8
0
  6
Continuous
 62
     7
370
    25
100
AcDbLine
 10
354.0667821041631
 20
354.4156287493502
 30
0.0
 11
354.0667821041631
 21
354.7773414026255
 31
0.0
  0
ELLIPSE
  5
48C
330
1F
100
AcDbEntity
  8
0
  6
Continuous
 62
     7
370
    25
100
AcDbEllipse
 10
354.3517487560409
 20
354.9369615207885
 30
0.0
 11
0.1999830001075225
 21
0.3464199758967084
 31
0.0
210
0.0
220
0.0
230
1.0
 40
0.5860215324412791
 41
0.7927407620490424
 42
2.348684405899097
  0
LINE
  5
48D
330
1F
100
AcDbEntity
  8
0
  6
Continuous
 62
     7
370
    25
100
AcDbLine
 10
354.3475163351936
 20
355.263587352767
 30
0.0
 11
354.6607517133266
 21
355.4444142875537
 31
0.0
  0
LINE
  5
48E
330
1F
100
AcDbEntity
  8
0
  6
Continuous
 62
     7
370
    25
100
AcDbLine
 10
354.6607517133266
 20
355.4444142875537
 30
0.0
 11
354.6607517133266
 21
355.8690157010059
 31
0.0
  0
LINE
  5
48F
330
1F
100
AcDbEntity
  8
0
  6
Continuous
 62
     7
370
    25
100
AcDbLine
 10
354.6607517133266
 20
355.8690157010059
 30
0.0
 11
354.3475163351936
 21
355.6881887662193
 31
0.0
  0
ELLIPSE
  5
490
330
1F
100
AcDbEntity
  8
0
  6
Continuous
 62
     7
370
    25
100
AcDbEllipse
 10
354.3517487560409
 20
356.0197010556595
 30
0.0
 11
0.2029770344754524
 21
0.351602984815031
 31
0.0
210
0.0
220
0.0
230
1.0
 40
0.5688689412916217
 41
2.363541920748373
 42
3.919485564597363
  0
LINE
  5
491
330
1F
100
AcDbEntity
  8
0
  6
Continuous
 62
     7
370
    25
100
AcDbLine
 10
354.0667821041631
 20
355.8503058724894
 30
0.0
 11
354.0667821041631
 21
356.2120185257648
 31
0.0
  0
LINE
  5
492
330
1F
100
AcDbEntity
  8
0
  6
Continuous
 62
     7
370
    25
100
AcDbLine
 10
354.0734199035314
 20
355.7836457536386
 30
0.0
 11
353.699086412309
 21
355.9997523210707
 31
0.0
  0
LINE
  5
493
330
1F
100
AcDbEntity
  8
0
  6
Continuous
 62
     7
370
    25
100
AcDbLine
 10
353.4795354112456
 20
354.7548114569469
 30
0.0
 11
353.1051168031457
 21
354.970966782867
 31
0.0
  0
LINE
  5
494
330
1F
100
AcDbEntity
  8
0
  6
Continuous
 62
     8
370
    25
100
AcDbLine
 10
347.0249289664476
 20
358.6520986469577
 30
0.0
 11
342.4985147359072
 21
361.2651419620578
 31
0.0
  0
LINE
  5
495
330
1F
100
AcDbEntity
  8
0
  6
Continuous
 62
     8
370
    25
100
AcDbLine
 10
342.4985151577872
 20
361.591731708804
 30
0.0
 11
347.3077952353227
 21
358.815393416065
 31
0.0
  0
LINE
  5
496
330
1F
100
AcDbEntity
  8
0
  6
Continuous
 62
     8
370
    25
100
AcDbLine
 10
348.0857391309588
 20
359.2644908526297
 30
0.0
 11
342.4985151577872
 21
362.4899265970113
 31
0.0
  0
ARC
  5
497
330
1F
100
AcDbEntity
  8
0
  6
Continuous
 62
     8
370
    25
100
AcDbCircle
 10
338.9751082128915
 20
333.2172111337156
 30
0.0
 40
0.1005938202749955
100
AcDbArc
 50
245.6923804638131
 51
305.6178335843214
  0
ARC
  5
498
330
1F
100
AcDbEntity
  8
0
  6
Continuous
 62
     8
370
    25
100
AcDbCircle
 10
338.933783380667
 20
333.2887631492245
 30
0.0
 40
0.1005881660204427
100
AcDbArc
 50
114.3747864209062
 51
174.305111931533
  0
ARC
  5
499
330
1F
100
AcDbEntity
  8
0
  6
Continuous
 62
     8
370
    25
100
AcDbCircle
 10
338.9337833806672
 20
363.9906969599437
 30
0.0
 40
0.1005881660206746
100
AcDbArc
 50
114.3747864209841
 51
174.3051119315137
  0
ARC
  5
49A
330
1F
100
AcDbEntity
  8
0
  6
Continuous
 62
     8
370
    25
100
AcDbCircle
 10
356.6667922263027
 20
374.2987586761551
 30
0.0
 40
0.0975135248660059
100
AcDbArc
 50
124.6358271288033
 51
186.6768776424695
  0
ARC
  5
49B
330
1F
100
AcDbEntity
  8
0
  6
Continuous
 62
     8
370
    25
100
AcDbCircle
 10
356.757615239857
 20
374.2995206360226
 30
0.0
 40
0.0959334505150333
100
AcDbArc
 50
352.7540398912893
 51
55.93347102468559
  0
LINE
  5
49C
330
1F
100
AcDbEntity
  8
0
  6
Continuous
 62
     8
370
    25
100
AcDbLine
 10
345.9289801429206
 20
358.0194200552795
 30
0.0
 11
344.2393451313226
 21
359.1360141998119
 31
0.0
  0
ARC
  5
49D
330
1F
100
AcDbEntity
  8
0
  6
Continuous
 62
     8
370
    25
100
AcDbCircle
 10
338.9862593582648
 20
364.0949524808449
 30
0.0
 40
0.0948343075754416
100
AcDbArc
 50
123.6573558368226
 51
187.6553489343601
  0
LINE
  5
49E
330
1F
100
AcDbEntity
  8
0
  6
Continuous
 62
     8
370
    25
100
AcDbLine
 10
342.0438581697456
 20
346.4082883498789
 30
0.0
 11
342.3311749647237
 21
346.1495515461665
 31
0.0
  0
LINE
  5
49F
330
1F
100
AcDbEntity
  8
0
  6
Continuous
 62
     8
370
    25
100
AcDbLine
 10
341.7631236917609
 20
345.1657673807365
 30
0.0
 11
341.3954282468609
 21
345.2851740211281
 31
0.0
  0
LINE
  5
4A0
330
1F
100
AcDbEntity
  8
0
  6
Continuous
 62
     8
370
    25
100
AcDbLine
 10
341.7631243091463
 20
345.497549153284
 30
0.0
 11
341.1146940158305
 21
345.8718933013134
 31
0.0
  0
LINE
  5
4A1
330
1F
100
AcDbEntity
  8
0
  6
Continuous
 62
     8
370
    25
100
AcDbLine
 10
341.3954282468609
 20
346.3581400119178
 30
0.0
 11
342.043951971179
 21
345.9837411650023
 31
0.0
  0
LINE
  5
4A2
330
1F
100
AcDbEntity
  8
0
  6
Continuous
 62
     8
370
    25
100
AcDbLine
 10
354.3475163351936
 20
355.6881887662193
 30
0.0
 11
354.6348331301718
 21
355.4294519625068
 31
0.0
  0
LINE
  5
4A3
330
1F
100
AcDbEntity
  8
0
  6
Continuous
 62
     8
370
    25
100
AcDbLine
 10
354.0667818572091
 20
354.4456677970768
 30
0.0
 11
353.699086412309
 21
354.5650751979314
 31
0.0
  0
LINE
  5
4A4
330
1F
100
AcDbEntity
  8
0
  6
Continuous
 62
     8
370
    25
100
AcDbLine
 10
354.06678181605
 20
354.7774491894547
 30
0.0
 11
353.4183521812785
 21
355.1517937176537
 31
0.0
  0
LINE
  5
4A5
330
1F
100
AcDbEntity
  8
0
  6
Continuous
 62
     8
370
    25
100
AcDbLine
 10
353.699086412309
 20
355.6380396677952
 30
0.0
 11
354.347610136627
 21
355.2636415813426
 31
0.0
  0
ARC
  5
548
330
1F
100
AcDbEntity
  8
0
  6
HIDDEN
 62
     7
370
    25
100
AcDbCircle
 10
568.5605464254191
 20
221.2059145470531
 30
0.0
 40
0.2000000000000124
100
AcDbArc
 50
299.9973117336289
 51
0.0000000000162844
  0
LINE
  5
549
330
1F
100
AcDbEntity
  8
0
  6
HIDDEN
 62
     7
370
    25
100
AcDbLine
 10
568.7605464254191
 20
221.2059145470531
 30
0.0
 11
568.7605464254191
 21
251.9078490739576
 31
0.0
  0
LINE
  5
54A
330
1F
100
AcDbEntity
  8
0
  6
HIDDEN
 62
     7
370
    25
100
AcDbLine
 10
562.6617500990585
 20
217.5696780595302
 30
0.0
 11
568.6605382986827
 21
221.0327047745769
 31
0.0
  0
LINE
  5
54B
330
1F
100
AcDbEntity
  8
0
  6
HIDDEN
 62
     7
370
    25
100
AcDbLine
 10
550.9828687690189
 20
210.827603376793
 30
0.0
 11
556.981656968643
 21
214.2906300918398
 31
0.0
  0
LINE
  5
54C
330
1F
100
AcDbEntity
  8
0
  6
HIDDEN
 62
     7
370
    25
100
AcDbLine
 10
550.0050675631863
 20
211.2766278382955
 30
0.0
 11
550.7828850224917
 21
210.827603376793
 31
0.0
  0
ARC
  5
54D
330
1F
100
AcDbEntity
  8
0
  6
HIDDEN
 62
     7
370
    25
100
AcDbCircle
 10
550.8828768957552
 20
211.0008131492691
 30
0.0
 40
0.1999999999999708
100
AcDbArc
 50
240.002688266363
 51
299.9973117336734
  0
LINE
  5
54E
330
1F
100
AcDbEntity
  8
0
  6
HIDDEN
 62
     7
370
    25
100
AcDbLine
 10
568.6605382986828
 20
252.0810588464337
 30
0.0
 11
567.8827208393775
 21
252.5300833079362
 31
0.0
  0
ARC
  5
54F
330
1F
100
AcDbEntity
  8
0
  6
HIDDEN
 62
     7
370
    25
100
AcDbCircle
 10
568.5605464254191
 20
251.9078490739576
 30
0.0
 40
0.20000000000002
100
AcDbArc
 50
0.0
 51
60.00268826633472
  0
LINE
  5
551
330
1F
100
AcDbEntity
  8
0
  6
HIDDEN
 62
     7
370
    25
100
AcDbLine
 10
549.9636380802127
 20
211.3681702595768
 30
0.0
 11
567.6413076098765
 21
221.5732716573607
 31
0.0
  0
ARC
  5
554
330
1F
100
AcDbEntity
  8
0
  6
HIDDEN
 62
     7
370
    25
100
AcDbCircle
 10
567.6171071020783
 20
221.7505519901896
 30
0.0
 40
0.307360961513707
100
AcDbArc
 50
302.6054783399643
 51
357.3945215144345
  0
LINE
  5
555
330
1F
100
AcDbEntity
  8
0
  6
HIDDEN
 62
     7
370
    25
100
AcDbLine
 10
567.7827289661138
 20
221.4916308461785
 30
0.0
 11
567.782728966114
 21
252.5201816978372
 31
0.0
  0
ARC
  5
556
330
1F
100
AcDbEntity
  8
0
  6
HIDDEN
 62
     7
370
    25
100
AcDbCircle
 10
567.8379354488659
 20
252.4524997860226
 30
0.0
 40
0.0873418394857385
100
AcDbArc
 50
350.7859630094765
 51
129.2032852357388
  0
LINE
  5
557
330
1F
100
AcDbEntity
  8
0
  6
HIDDEN
 62
     7
370
    25
100
AcDbLine
 10
567.9241503223511
 20
221.7365798197379
 30
0.0
 11
567.9241503223512
 21
252.4385143466423
 31
0.0
  0
LINE
  5
558
330
1F
100
AcDbEntity
  8
0
  6
HIDDEN
 62
     7
370
    25
100
AcDbLine
 10
556.3275991108917
 20
214.6338027068676
 30
0.0
 11
561.9844533603841
 21
217.8994351541586
 31
0.0
  0
LINE
  5
559
330
1F
100
AcDbEntity
  8
0
  6
HIDDEN
 62
     7
370
    25
100
AcDbLine
 10
556.3275991108917
 20
214.6338027068676
 30
0.0
 11
556.8834104600195
 21
214.3015392794986
 31
0.0
  0
LINE
  5
55A
330
1F
100
AcDbEntity
  8
0
  6
HIDDEN
 62
     7
370
    25
100
AcDbLine
 10
550.8828768957552
 20
210.837504986892
 30
0.0
 11
556.8834104600195
 21
214.3015392794986
 31
0.0
  0
LINE
  5
55B
330
1F
100
AcDbEntity
  8
0
  6
HIDDEN
 62
     7
370
    25
100
AcDbLine
 10
550.10505943645
 20
211.2865294483945
 30
0.0
 11
550.8828768957552
 21
210.837504986892
 31
0.0
  0
LINE
  5
55C
330
1F
100
AcDbEntity
  8
0
  6
HIDDEN
 62
     7
370
    25
100
AcDbLine
 10
549.9636380802127
 20
211.3681702595768
 30
0.0
 11
550.10505943645
 21
211.2865294483945
 31
0.0
  0
LINE
  5
55D
330
1F
100
AcDbEntity
  8
0
  6
HIDDEN
 62
     7
370
    25
100
AcDbLine
 10
567.7827289661138
 20
221.4916308461785
 30
0.0
 11
567.6413076098765
 21
221.5732716573607
 31
0.0
  0
LINE
  5
55E
330
1F
100
AcDbEntity
  8
0
  6
HIDDEN
 62
     7
370
    25
100
AcDbLine
 10
568.5605464254191
 20
221.042606384676
 30
0.0
 11
567.7827289661138
 21
221.4916308461785
 31
0.0
  0
LINE
  5
55F
330
1F
100
AcDbEntity
  8
0
  6
HIDDEN
 62
     7
370
    25
100
AcDbLine
 10
562.5600128611547
 20
217.5785720920693
 30
0.0
 11
568.5605464254191
 21
221.042606384676
 31
0.0
  0
LINE
  5
560
330
1F
100
AcDbEntity
  8
0
  6
HIDDEN
 62
     7
370
    25
100
AcDbLine
 10
561.9844533603841
 20
217.8994351541586
 30
0.0
 11
562.5600128611547
 21
217.5785720920693
 31
0.0
  0
LINE
  5
562
330
1F
100
AcDbEntity
  8
0
  6
HIDDEN
 62
     7
370
    25
100
AcDbLine
 10
567.9241503223511
 20
221.7365798197379
 30
0.0
 11
568.7019677816564
 21
221.2875553582354
 31
0.0
  0
ARC
  5
563
330
1F
100
AcDbEntity
  8
0
  6
HIDDEN
 62
     7
370
    25
100
AcDbCircle
 10
568.3949245613825
 20
221.3015275286878
 30
0.0
 40
0.3073609615149109
100
AcDbArc
 50
302.6054783400716
 51
357.3945215142959
  0
LINE
  5
564
330
1F
100
AcDbEntity
  8
0
  6
HIDDEN
 62
     7
370
    25
100
AcDbLine
 10
568.7019677816565
 20
251.9894898851398
 30
0.0
 11
567.9241503223512
 21
252.4385143466423
 31
0.0
  0
LINE
  5
565
330
1F
100
AcDbEntity
  8
0
  6
HIDDEN
 62
     7
370
    25
100
AcDbLine
 10
568.7019677816564
 20
221.2875553582354
 30
0.0
 11
568.7019677816565
 21
251.9894898851398
 31
0.0
  0
ELLIPSE
  5
566
330
1F
100
AcDbEntity
  8
0
  6
HIDDEN
 62
     7
370
    25
100
AcDbEllipse
 10
562.5600128611547
 20
217.7418802544465
 30
0.0
 11
-0.1026525863727556
 21
0.1716643463722676
 31
0.0
210
0.0
220
0.0
230
1.0
 40
0.5873687162543133
 41
2.347239087449792
 42
3.132555986785605
  0
ELLIPSE
  5
567
330
1F
100
AcDbEntity
  8
0
  6
HIDDEN
 62
     7
370
    25
100
AcDbEllipse
 10
556.8834104600195
 20
214.4648474418758
 30
0.0
 11
-0.09741494644129034
 21
0.1746892004041456
 31
0.0
210
0.0
220
0.0
230
1.0
 40
0.5672183927595275
 41
2.364703013104216
 42
3.9354993398994
  0
LINE
  5
568
330
1F
100
AcDbEntity
  8
0
  6
HIDDEN
 62
     7
370
    25
100
AcDbLine
 10
557.0223632973015
 20
214.3817815850335
 30
0.0
 11
557.0223632973015
 21
215.034881534479
 31
0.0
  0
ARC
  5
569
330
1F
100
AcDbEntity
  8
0
  6
HIDDEN
 62
     7
370
    25
100
AcDbCircle
 10
550.0498529536981
 20
211.3542113602093
 30
0.0
 40
0.0873418394856741
100
AcDbArc
 50
170.7859630095502
 51
309.2032852356812
  0
ARC
  5
56A
330
1F
100
AcDbEntity
  8
0
  6
HIDDEN
 62
     8
370
    25
100
AcDbCircle
 10
568.6191304363894
 20
221.1243826505001
 30
0.0
 40
0.1005954471807688
100
AcDbArc
 50
234.3824225248988
 51
294.307119045897
  0
ARC
  5
56B
330
1F
100
AcDbEntity
  8
0
  6
HIDDEN
 62
     8
370
    25
100
AcDbCircle
 10
568.6604550129208
 20
221.1959332716732
 30
0.0
 40
0.1005878556989259
100
AcDbArc
 50
5.694799251201185
 51
65.62534170633101
  0
ARC
  5
56C
330
1F
100
AcDbEntity
  8
0
  6
HIDDEN
 62
     8
370
    25
100
AcDbCircle
 10
568.6604550129209
 20
251.8978677985777
 30
0.0
 40
0.1005878556988379
100
AcDbArc
 50
5.694799251207612
 51
65.62534170630428
  0
ARC
  5
56D
330
1F
100
AcDbEntity
  8
0
  6
HIDDEN
 62
     8
370
    25
100
AcDbCircle
 10
550.9414609067253
 20
210.9192812527156
 30
0.0
 40
0.100595447180329
100
AcDbArc
 50
234.3824225248007
 51
294.3071190461483
  0
ARC
  5
56E
330
1F
100
AcDbEntity
  8
0
  6
HIDDEN
 62
     8
370
    25
100
AcDbCircle
 10
550.8242928847852
 20
210.9192812527153
 30
0.0
 40
0.1005954471799664
100
AcDbArc
 50
245.6928809537584
 51
305.6175774752692
  0
ARC
  5
56F
330
1F
100
AcDbEntity
  8
0
  6
HIDDEN
 62
     8
370
    25
100
AcDbCircle
 10
568.6068306700346
 20
252.0016026906601
 30
0.0
 40
0.0959051096936088
100
AcDbArc
 50
352.7441705890579
 51
55.94364901755682
  0
ENDSEC
  0
SECTION
  2
OBJECTS
  0
DICTIONARY
  5
C
330
0
100
AcDbDictionary
281
     1
  3
ACAD_DETAILVIEWSTYLE
350
4CD
  3
ACAD_GROUP
350
D
  3
ACAD_LAYOUT
350
1A
  3
ACAD_MLINESTYLE
350
17
  3
ACAD_PLOTSETTINGS
350
19
  3
ACAD_PLOTSTYLENAME
350
E
  3
ACAD_SCALELIST
350
47
  3
ACAD_SECTIONVIEWSTYLE
350
4CE
  3
AcDbVariableDictionary
350
4C8
  3
APPDATA
350
2E4
  3
DWGPROPS
350
5B4
  0
DICTIONARY
  5
303
330
2
100
AcDbDictionary
280
     1
281
     1
  3
ACAD_LAYERSTATES
360
304
  0
DICTIONARY
  5
2E7
330
2E6
100
AcDbDictionary
280
     1
281
     1
  3
ADSK_XREC_LAYER_RECONCILED
360
2E8
  0
DICTIONARY
  5
4CD
102
{ACAD_REACTORS
330
C
102
}
330
C
100
AcDbDictionary
281
     1
  0
DICTIONARY
  5
D
102
{ACAD_REACTORS
330
C
102
}
330
C
100
AcDbDictionary
281
     1
  0
DICTIONARY
  5
1A
102
{ACAD_REACTORS
330
C
102
}
330
C
100
AcDbDictionary
281
     1
  3
Layout1
350
1E
  3
Layout2
350
26
  3
Model
350
22
  0
DICTIONARY
  5
17
102
{ACAD_REACTORS
330
C
102
}
330
C
100
AcDbDictionary
281
     1
  3
Standard
350
18
  0
DICTIONARY
  5
19
102
{ACAD_REACTORS
330
C
102
}
330
C
100
AcDbDictionary
281
     1
  0
ACDBDICTIONARYWDFLT
  5
E
102
{ACAD_REACTORS
330
C
102
}
330
C
100
AcDbDictionary
281
     1
  3
Normal
350
F
100
AcDbDictionaryWithDefault
340
F
  0
DICTIONARY
  5
47
102
{ACAD_REACTORS
330
C
102
}
330
C
100
AcDbDictionary
281
     1
  3
A0
350
48
  3
A1
350
49
  3
A2
350
4A
  3
A3
350
4B
  3
A4
350
4C
  3
A5
350
4D
  3
A6
350
4E
  3
A7
350
4F
  3
A8
350
50
  3
A9
350
51
  3
B0
350
52
  3
B1
350
53
  3
B2
350
54
  3
B3
350
55
  3
B4
350
56
  3
B5
350
57
  3
B6
350
58
  3
B7
350
59
  3
B8
350
5A
  3
B9
350
5B
  3
C0
350
5C
  3
C1
350
5D
  3
C2
350
5E
  3
C3
350
5F
  3
C4
350
60
  3
C5
350
61
  3
C6
350
62
  3
C7
350
63
  3
C8
350
64
  3
C9
350
65
  3
D0
350
66
  3
D1
350
67
  3
D2
350
68
  0
DICTIONARY
  5
4CE
102
{ACAD_REACTORS
330
C
102
}
330
C
100
AcDbDictionary
281
     1
  0
DICTIONARY
  5
4C8
102
{ACAD_REACTORS
330
C
102
}
330
C
100
AcDbDictionary
281
     1
  0
DICTIONARY
  5
2E4
102
{ACAD_REACTORS
330
C
102
}
330
C
100
AcDbDictionary
281
     1
  0
XRECORD
  5
5B4
102
{ACAD_REACTORS
330
C
102
}
330
C
100
AcDbXrecord
280
     1
  1
DWGPROPS COOKIE
  2

  3

  4

  6

  7

  8
ModuleX
  9

300
=
301
=
302
=
303
=
304
=
305
=
306
=
307
=
308
=
309
=
 40
0.0
 41
2458682.162002107
 42
2458737.185814375
  1

 90
        0
  0
DICTIONARY
  5
304
102
{ACAD_REACTORS
330
303
102
}
330
303
100
AcDbDictionary
281
     1
  0
XRECORD
  5
2E8
102
{ACAD_REACTORS
330
2E7
102
}
330
2E7
100
AcDbXrecord
280
     1
290
     1
  0
LAYOUT
  5
1E
102
{ACAD_REACTORS
330
1A
102
}
330
1A
100
AcDbPlotSettings
  1

  2
none_device
  4

  6

 40
0.0
 41
0.0
 42
0.0
 43
0.0
 44
0.0
 45
0.0
 46
0.0
 47
0.0
 48
0.0
 49
0.0
140
0.0
141
0.0
142
1.0
143
1.0
 70
   688
 72
     1
 73
     0
 74
     5
  7

 75
    16
147
1.0
148
0.0
149
0.0
100
AcDbLayout
  1
Layout1
 70
     1
 71
     1
 10
0.0
 20
0.0
 11
420.0
 21
297.0
 12
0.0
 22
0.0
 32
0.0
 14
1.000000000000000E+20
 24
1.000000000000000E+20
 34
1.000000000000000E+20
 15
-1.000000000000000E+20
 25
-1.000000000000000E+20
 35
-1.000000000000000E+20
146
0.0
 13
0.0
 23
0.0
 33
0.0
 16
1.0
 26
0.0
 36
0.0
 17
0.0
 27
1.0
 37
0.0
 76
     0
330
1B
  0
LAYOUT
  5
26
102
{ACAD_REACTORS
330
1A
102
}
330
1A
100
AcDbPlotSettings
  1

  2
none_device
  4

  6

 40
0.0
 41
0.0
 42
0.0
 43
0.0
 44
0.0
 45
0.0
 46
0.0
 47
0.0
 48
0.0
 49
0.0
140
0.0
141
0.0
142
1.0
143
1.0
 70
   688
 72
     1
 73
     0
 74
     5
  7

 75
    16
147
1.0
148
0.0
149
0.0
100
AcDbLayout
  1
Layout2
 70
     1
 71
     2
 10
0.0
 20
0.0
 11
0.0
 21
0.0
 12
0.0
 22
0.0
 32
0.0
 14
0.0
 24
0.0
 34
0.0
 15
0.0
 25
0.0
 35
0.0
146
0.0
 13
0.0
 23
0.0
 33
0.0
 16
1.0
 26
0.0
 36
0.0
 17
0.0
 27
1.0
 37
0.0
 76
     0
330
23
  0
LAYOUT
  5
22
102
{ACAD_REACTORS
330
1A
102
}
330
1A
100
AcDbPlotSettings
  1

  2
none_device
  4
Letter_(8.50_x_11.00_Inches)
  6

 40
6.35
 41
6.35
 42
6.35000508
 43
6.35000508
 44
215.9
 45
279.4
 46
0.0
 47
0.0
 48
0.0
 49
0.0
140
0.0
141
0.0
142
1.0
143
1.0
 70
  1712
 72
     1
 73
     0
 74
     0
  7

 75
     0
147
1.0
148
0.0
149
0.0
100
AcDbLayout
  1
Model
 70
     1
 71
     0
 10
0.0
 20
0.0
 11
1189.0
 21
841.0
 12
0.0
 22
0.0
 32
0.0
 14
338.8336916748514
 24
181.6529500771607
 34
0.0
 15
569.5910716820981
 25
374.4057806139577
 35
0.0
146
0.0
 13
0.0
 23
0.0
 33
0.0
 16
1.0
 26
0.0
 36
0.0
 17
0.0
 27
1.0
 37
0.0
 76
     0
330
1F
331
29
  0
MLINESTYLE
  5
18
102
{ACAD_REACTORS
330
17
102
}
330
17
100
AcDbMlineStyle
  2
Standard
 70
     0
  3

 62
   256
 51
90.0
 52
90.0
 71
     2
 49
0.5
 62
   256
  6
BYLAYER
 49
-0.5
 62
   256
  6
BYLAYER
  0
ACDBPLACEHOLDER
  5
F
102
{ACAD_REACTORS
330
E
102
}
330
E
  0
SCALE
  5
48
102
{ACAD_REACTORS
330
47
102
}
330
47
100
AcDbScale
 70
     0
300
1:1
140
1.0
141
1.0
290
     1
  0
SCALE
  5
49
102
{ACAD_REACTORS
330
47
102
}
330
47
100
AcDbScale
 70
     0
300
1:2
140
1.0
141
2.0
290
     0
  0
SCALE
  5
4A
102
{ACAD_REACTORS
330
47
102
}
330
47
100
AcDbScale
 70
     0
300
1:4
140
1.0
141
4.0
290
     0
  0
SCALE
  5
4B
102
{ACAD_REACTORS
330
47
102
}
330
47
100
AcDbScale
 70
     0
300
1:5
140
1.0
141
5.0
290
     0
  0
SCALE
  5
4C
102
{ACAD_REACTORS
330
47
102
}
330
47
100
AcDbScale
 70
     0
300
1:8
140
1.0
141
8.0
290
     0
  0
SCALE
  5
4D
102
{ACAD_REACTORS
330
47
102
}
330
47
100
AcDbScale
 70
     0
300
1:10
140
1.0
141
10.0
290
     0
  0
SCALE
  5
4E
102
{ACAD_REACTORS
330
47
102
}
330
47
100
AcDbScale
 70
     0
300
1:16
140
1.0
141
16.0
290
     0
  0
SCALE
  5
4F
102
{ACAD_REACTORS
330
47
102
}
330
47
100
AcDbScale
 70
     0
300
1:20
140
1.0
141
20.0
290
     0
  0
SCALE
  5
50
102
{ACAD_REACTORS
330
47
102
}
330
47
100
AcDbScale
 70
     0
300
1:30
140
1.0
141
30.0
290
     0
  0
SCALE
  5
51
102
{ACAD_REACTORS
330
47
102
}
330
47
100
AcDbScale
 70
     0
300
1:40
140
1.0
141
40.0
290
     0
  0
SCALE
  5
52
102
{ACAD_REACTORS
330
47
102
}
330
47
100
AcDbScale
 70
     0
300
1:50
140
1.0
141
50.0
290
     0
  0
SCALE
  5
53
102
{ACAD_REACTORS
330
47
102
}
330
47
100
AcDbScale
 70
     0
300
1:100
140
1.0
141
100.0
290
     0
  0
SCALE
  5
54
102
{ACAD_REACTORS
330
47
102
}
330
47
100
AcDbScale
 70
     0
300
2:1
140
2.0
141
1.0
290
     0
  0
SCALE
  5
55
102
{ACAD_REACTORS
330
47
102
}
330
47
100
AcDbScale
 70
     0
300
4:1
140
4.0
141
1.0
290
     0
  0
SCALE
  5
56
102
{ACAD_REACTORS
330
47
102
}
330
47
100
AcDbScale
 70
     0
300
8:1
140
8.0
141
1.0
290
     0
  0
SCALE
  5
57
102
{ACAD_REACTORS
330
47
102
}
330
47
100
AcDbScale
 70
     0
300
10:1
140
10.0
141
1.0
290
     0
  0
SCALE
  5
58
102
{ACAD_REACTORS
330
47
102
}
330
47
100
AcDbScale
 70
     0
300
100:1
140
100.0
141
1.0
290
     0
  0
SCALE
  5
59
102
{ACAD_REACTORS
330
47
102
}
330
47
100
AcDbScale
 70
     0
300
1/128" = 1'-0"
140
0.0078125
141
12.0
290
     0
  0
SCALE
  5
5A
102
{ACAD_REACTORS
330
47
102
}
330
47
100
AcDbScale
 70
     0
300
1/64" = 1'-0"
140
0.015625
141
12.0
290
     0
  0
SCALE
  5
5B
102
{ACAD_REACTORS
330
47
102
}
330
47
100
AcDbScale
 70
     0
300
1/32" = 1'-0"
140
0.03125
141
12.0
290
     0
  0
SCALE
  5
5C
102
{ACAD_REACTORS
330
47
102
}
330
47
100
AcDbScale
 70
     0
300
1/16" = 1'-0"
140
0.0625
141
12.0
290
     0
  0
SCALE
  5
5D
102
{ACAD_REACTORS
330
47
102
}
330
47
100
AcDbScale
 70
     0
300
3/32" = 1'-0"
140
0.09375
141
12.0
290
     0
  0
SCALE
  5
5E
102
{ACAD_REACTORS
330
47
102
}
330
47
100
AcDbScale
 70
     0
300
1/8" = 1'-0"
140
0.125
141
12.0
290
     0
  0
SCALE
  5
5F
102
{ACAD_REACTORS
330
47
102
}
330
47
100
AcDbScale
 70
     0
300
3/16" = 1'-0"
140
0.1875
141
12.0
290
     0
  0
SCALE
  5
60
102
{ACAD_REACTORS
330
47
102
}
330
47
100
AcDbScale
 70
     0
300
1/4" = 1'-0"
140
0.25
141
12.0
290
     0
  0
SCALE
  5
61
102
{ACAD_REACTORS
330
47
102
}
330
47
100
AcDbScale
 70
     0
300
3/8" = 1'-0"
140
0.375
141
12.0
290
     0
  0
SCALE
  5
62
102
{ACAD_REACTORS
330
47
102
}
330
47
100
AcDbScale
 70
     0
300
1/2" = 1'-0"
140
0.5
141
12.0
290
     0
  0
SCALE
  5
63
102
{ACAD_REACTORS
330
47
102
}
330
47
100
AcDbScale
 70
     0
300
3/4" = 1'-0"
140
0.75
141
12.0
290
     0
  0
SCALE
  5
64
102
{ACAD_REACTORS
330
47
102
}
330
47
100
AcDbScale
 70
     0
300
1" = 1'-0"
140
1.0
141
12.0
290
     0
  0
SCALE
  5
65
102
{ACAD_REACTORS
330
47
102
}
330
47
100
AcDbScale
 70
     0
300
1-1/2" = 1'-0"
140
1.5
141
12.0
290
     0
  0
SCALE
  5
66
102
{ACAD_REACTORS
330
47
102
}
330
47
100
AcDbScale
 70
     0
300
3" = 1'-0"
140
3.0
141
12.0
290
     0
  0
SCALE
  5
67
102
{ACAD_REACTORS
330
47
102
}
330
47
100
AcDbScale
 70
     0
300
6" = 1'-0"
140
6.0
141
12.0
290
     0
  0
SCALE
  5
68
102
{ACAD_REACTORS
330
47
102
}
330
47
100
AcDbScale
 70
     0
300
1'-0" = 1'-0"
140
12.0
141
12.0
290
     0
  0
ENDSEC
  0
EOF
