  0
SECTION
  2
HEADER
  9
$ACADVER
  1
AC1015
  9
$ACADMAINTVER
 70
     6
  9
$DWGCODEPAGE
  3
ANSI_932
  9
$INSBASE
 10
0.0
 20
0.0
 30
0.0
  9
$EXTMIN
 10
142.7645680214
 20
65.4502541016
 30
0.0
  9
$EXTMAX
 10
258.9422871078
 20
217.6674296901458
 30
0.0
  9
$LIMMIN
 10
0.0
 20
0.0
  9
$LIMMAX
 10
431.8
 20
279.4
  9
$ORTHOMODE
 70
     0
  9
$REGENMODE
 70
     1
  9
$FILLMODE
 70
     1
  9
$QTEXTMODE
 70
     0
  9
$MIRRTEXT
 70
     1
  9
$LTSCALE
 40
1.0
  9
$ATTMODE
 70
     1
  9
$TEXTSIZE
 40
4.0
  9
$TRACEWID
 40
1.0
  9
$TEXTSTYLE
  7
Standard
  9
$CLAYER
  8
0
  9
$CELTYPE
  6
ByLayer
  9
$CECOLOR
 62
   256
  9
$CELTSCALE
 40
1.0
  9
$DISPSILH
 70
     0
  9
$DIMSCALE
 40
1.0
  9
$DIMASZ
 40
2.5
  9
$DIMEXO
 40
1.5
  9
$DIMDLI
 40
3.75
  9
$DIMRND
 40
0.0
  9
$DIMDLE
 40
0.0
  9
$DIMEXE
 40
1.0
  9
$DIMTP
 40
0.0
  9
$DIMTM
 40
0.0
  9
$DIMTXT
 40
4.0
  9
$DIMCEN
 40
2.5
  9
$DIMTSZ
 40
0.0
  9
$DIMTOL
 70
     0
  9
$DIMLIM
 70
     0
  9
$DIMTIH
 70
     1
  9
$DIMTOH
 70
     1
  9
$DIMSE1
 70
     0
  9
$DIMSE2
 70
     0
  9
$DIMTAD
 70
     1
  9
$DIMZIN
 70
     0
  9
$DIMBLK
  1

  9
$DIMASO
 70
     1
  9
$DIMSHO
 70
     1
  9
$DIMPOST
  1

  9
$DIMAPOST
  1

  9
$DIMALT
 70
     0
  9
$DIMALTD
 70
     3
  9
$DIMALTF
 40
0.0393700787
  9
$DIMLFAC
 40
1.0
  9
$DIMTOFL
 70
     1
  9
$DIMTVP
 40
0.0
  9
$DIMTIX
 70
     0
  9
$DIMSOXD
 70
     0
  9
$DIMSAH
 70
     0
  9
$DIMBLK1
  1

  9
$DIMBLK2
  1

  9
$DIMSTYLE
  2
ISO-25
  9
$DIMCLRD
 70
     0
  9
$DIMCLRE
 70
     0
  9
$DIMCLRT
 70
     0
  9
$DIMTFAC
 40
1.0
  9
$DIMGAP
 40
1.524
  9
$DIMJUST
 70
     0
  9
$DIMSD1
 70
     0
  9
$DIMSD2
 70
     0
  9
$DIMTOLJ
 70
     0
  9
$DIMTZIN
 70
     0
  9
$DIMALTZ
 70
     0
  9
$DIMALTTZ
 70
     0
  9
$DIMUPT
 70
     0
  9
$DIMDEC
 70
     2
  9
$DIMTDEC
 70
     2
  9
$DIMALTU
 70
     2
  9
$DIMALTTD
 70
     3
  9
$DIMTXSTY
  7
Standard
  9
$DIMAUNIT
 70
     0
  9
$DIMADEC
 70
     2
  9
$DIMALTRND
 40
0.0
  9
$DIMAZIN
 70
     0
  9
$DIMDSEP
 70
    44
  9
$DIMATFIT
 70
     3
  9
$DIMFRAC
 70
     0
  9
$DIMLDRBLK
  1

  9
$DIMLUNIT
 70
     2
  9
$DIMLWD
 70
    -2
  9
$DIMLWE
 70
    -2
  9
$DIMTMOVE
 70
     0
  9
$LUNITS
 70
     2
  9
$LUPREC
 70
     2
  9
$SKETCHINC
 40
1.0
  9
$FILLETRAD
 40
10.0
  9
$AUNITS
 70
     0
  9
$AUPREC
 70
     2
  9
$MENU
  1
.
  9
$ELEVATION
 40
0.0
  9
$PELEVATION
 40
0.0
  9
$THICKNESS
 40
0.0
  9
$LIMCHECK
 70
     0
  9
$CHAMFERA
 40
0.0
  9
$CHAMFERB
 40
0.0
  9
$CHAMFERC
 40
0.0
  9
$CHAMFERD
 40
0.0
  9
$SKPOLY
 70
     0
  9
$TDCREATE
 40
2457385.814885891
  9
$TDUCREATE
 40
2457385.439885891
  9
$TDUPDATE
 40
2458074.545210116
  9
$TDUUPDATE
 40
2458074.170210116
  9
$TDINDWG
 40
0.0014801968
  9
$TDUSRTIMER
 40
2458074.169886458
  9
$USRTIMER
 70
     1
  9
$ANGBASE
 50
0.0
  9
$ANGDIR
 70
     0
  9
$PDMODE
 70
     0
  9
$PDSIZE
 40
-1.0
  9
$PLINEWID
 40
0.0
  9
$SPLFRAME
 70
     0
  9
$SPLINETYPE
 70
     6
  9
$SPLINESEGS
 70
     8
  9
$HANDSEED
  5
43E
  9
$SURFTAB1
 70
     6
  9
$SURFTAB2
 70
     6
  9
$SURFTYPE
 70
     6
  9
$SURFU
 70
     6
  9
$SURFV
 70
     6
  9
$UCSBASE
  2

  9
$UCSNAME
  2

  9
$UCSORG
 10
0.0
 20
0.0
 30
0.0
  9
$UCSXDIR
 10
1.0
 20
0.0
 30
0.0
  9
$UCSYDIR
 10
0.0
 20
1.0
 30
0.0
  9
$UCSORTHOREF
  2

  9
$UCSORTHOVIEW
 70
     0
  9
$UCSORGTOP
 10
0.0
 20
0.0
 30
0.0
  9
$UCSORGBOTTOM
 10
0.0
 20
0.0
 30
0.0
  9
$UCSORGLEFT
 10
0.0
 20
0.0
 30
0.0
  9
$UCSORGRIGHT
 10
0.0
 20
0.0
 30
0.0
  9
$UCSORGFRONT
 10
0.0
 20
0.0
 30
0.0
  9
$UCSORGBACK
 10
0.0
 20
0.0
 30
0.0
  9
$PUCSBASE
  2

  9
$PUCSNAME
  2

  9
$PUCSORG
 10
0.0
 20
0.0
 30
0.0
  9
$PUCSXDIR
 10
1.0
 20
0.0
 30
0.0
  9
$PUCSYDIR
 10
0.0
 20
1.0
 30
0.0
  9
$PUCSORTHOREF
  2

  9
$PUCSORTHOVIEW
 70
     0
  9
$PUCSORGTOP
 10
0.0
 20
0.0
 30
0.0
  9
$PUCSORGBOTTOM
 10
0.0
 20
0.0
 30
0.0
  9
$PUCSORGLEFT
 10
0.0
 20
0.0
 30
0.0
  9
$PUCSORGRIGHT
 10
0.0
 20
0.0
 30
0.0
  9
$PUCSORGFRONT
 10
0.0
 20
0.0
 30
0.0
  9
$PUCSORGBACK
 10
0.0
 20
0.0
 30
0.0
  9
$USERI1
 70
     0
  9
$USERI2
 70
     0
  9
$USERI3
 70
     0
  9
$USERI4
 70
     0
  9
$USERI5
 70
     0
  9
$USERR1
 40
0.0
  9
$USERR2
 40
0.0
  9
$USERR3
 40
0.0
  9
$USERR4
 40
0.0
  9
$USERR5
 40
0.0
  9
$WORLDVIEW
 70
     1
  9
$SHADEDGE
 70
     3
  9
$SHADEDIF
 70
    70
  9
$TILEMODE
 70
     1
  9
$MAXACTVP
 70
    64
  9
$PINSBASE
 10
0.0
 20
0.0
 30
0.0
  9
$PLIMCHECK
 70
     0
  9
$PEXTMIN
 10
1.000000000000000E+20
 20
1.000000000000000E+20
 30
1.000000000000000E+20
  9
$PEXTMAX
 10
-1.000000000000000E+20
 20
-1.000000000000000E+20
 30
-1.000000000000000E+20
  9
$PLIMMIN
 10
0.0
 20
0.0
  9
$PLIMMAX
 10
0.0
 20
0.0
  9
$UNITMODE
 70
     0
  9
$VISRETAIN
 70
     1
  9
$PLINEGEN
 70
     0
  9
$PSLTSCALE
 70
     1
  9
$TREEDEPTH
 70
  3020
  9
$CMLSTYLE
  2
Standard
  9
$CMLJUST
 70
     0
  9
$CMLSCALE
 40
20.0
  9
$PROXYGRAPHICS
 70
     1
  9
$MEASUREMENT
 70
     1
  9
$CELWEIGHT
370
    -1
  9
$ENDCAPS
280
     0
  9
$JOINSTYLE
280
     0
  9
$LWDISPLAY
290
     1
  9
$INSUNITS
 70
     4
  9
$HYPERLINKBASE
  1

  9
$STYLESHEET
  1

  9
$XEDIT
290
     1
  9
$CEPSNTYPE
380
     0
  9
$PSTYLEMODE
290
     1
  9
$FINGERPRINTGUID
  2
{2042E8A6-3CF4-4326-982E-5B9251D1AB1E}
  9
$VERSIONGUID
  2
{FAEB1C32-E019-11D5-929B-00C0DF256EC4}
  9
$EXTNAMES
290
     1
  9
$PSVPSCALE
 40
0.0
  9
$OLESTARTUP
290
     0
  0
ENDSEC
  0
SECTION
  2
CLASSES
  0
CLASS
  1
ACDBDICTIONARYWDFLT
  2
AcDbDictionaryWithDefault
  3
ObjectDBX Classes
 90
        0
280
     0
281
     0
  0
CLASS
  1
VISUALSTYLE
  2
AcDbVisualStyle
  3
ObjectDBX Classes
 90
     4095
280
     0
281
     0
  0
CLASS
  1
MATERIAL
  2
AcDbMaterial
  3
ObjectDBX Classes
 90
     1153
280
     0
281
     0
  0
CLASS
  1
SCALE
  2
AcDbScale
  3
ObjectDBX Classes
 90
     1153
280
     0
281
     0
  0
CLASS
  1
SUN
  2
AcDbSun
  3
SCENEOE
 90
     1153
280
     0
281
     0
  0
CLASS
  1
ACDBPLACEHOLDER
  2
AcDbPlaceHolder
  3
ObjectDBX Classes
 90
        0
280
     0
281
     0
  0
CLASS
  1
LAYOUT
  2
AcDbLayout
  3
ObjectDBX Classes
 90
        0
280
     0
281
     0
  0
CLASS
  1
TABLESTYLE
  2
AcDbTableStyle
  3
ObjectDBX Classes
 90
     4095
280
     0
281
     0
  0
CLASS
  1
RASTERVARIABLES
  2
AcDbRasterVariables
  3
ISM
 90
        0
280
     0
281
     0
  0
CLASS
  1
DICTIONARYVAR
  2
AcDbDictionaryVar
  3
ObjectDBX Classes
 90
        0
280
     0
281
     0
  0
CLASS
  1
MLEADERSTYLE
  2
AcDbMLeaderStyle
  3
ACDB_MLEADERSTYLE_CLASS
 90
     4095
280
     0
281
     0
  0
ENDSEC
  0
SECTION
  2
TABLES
  0
TABLE
  2
VPORT
  5
8
330
0
100
AcDbSymbolTable
 70
     1
  0
VPORT
  5
29
330
8
100
AcDbSymbolTableRecord
100
AcDbViewportTableRecord
  2
*Active
 70
     0
 10
0.0
 20
0.0
 11
1.0
 21
1.0
 12
200.8534275646
 22
141.5587182457791
 13
0.0
 23
0.0
 14
10.0
 24
10.0
 15
10.0
 25
10.0
 16
0.0
 26
0.0
 36
1.0
 17
0.0
 27
0.0
 37
0.0
 40
155.2612668541254
 41
2.262839879154078
 42
50.0
 43
0.0
 44
0.0
 50
0.0
 51
0.0
 71
    16
 72
  2000
 73
     1
 74
     3
 75
     0
 76
     0
 77
     0
 78
     0
281
     0
 65
     1
110
0.0
120
0.0
130
0.0
111
1.0
121
0.0
131
0.0
112
0.0
122
1.0
132
0.0
 79
     0
146
0.0
  0
ENDTAB
  0
TABLE
  2
LTYPE
  5
5
330
0
100
AcDbSymbolTable
 70
     1
  0
LTYPE
  5
14
330
5
100
AcDbSymbolTableRecord
100
AcDbLinetypeTableRecord
  2
ByBlock
 70
     0
  3

 72
    65
 73
     0
 40
0.0
  0
LTYPE
  5
15
330
5
100
AcDbSymbolTableRecord
100
AcDbLinetypeTableRecord
  2
ByLayer
 70
     0
  3

 72
    65
 73
     0
 40
0.0
  0
LTYPE
  5
16
330
5
100
AcDbSymbolTableRecord
100
AcDbLinetypeTableRecord
  2
Continuous
 70
     0
  3
Solid line
 72
    65
 73
     0
 40
0.0
  0
ENDTAB
  0
TABLE
  2
LAYER
  5
2
330
0
100
AcDbSymbolTable
 70
     2
  0
LAYER
  5
10
330
2
100
AcDbSymbolTableRecord
100
AcDbLayerTableRecord
  2
0
 70
     0
 62
     7
  6
Continuous
370
    -3
390
F
  0
LAYER
  5
72
330
2
100
AcDbSymbolTableRecord
100
AcDbLayerTableRecord
  2
寸法線
 70
     0
 62
     7
  6
Continuous
370
    -3
390
F
  0
ENDTAB
  0
TABLE
  2
STYLE
  5
3
330
0
100
AcDbSymbolTable
 70
     2
  0
STYLE
  5
11
330
3
100
AcDbSymbolTableRecord
100
AcDbTextStyleTableRecord
  2
Standard
 70
     0
 40
0.0
 41
1.0
 50
0.0
 71
     0
 42
4.0
  3
txt
  4
bigfont
  0
STYLE
  5
3EF
330
3
100
AcDbSymbolTableRecord
100
AcDbTextStyleTableRecord
  2
SLDTEXTSTYLE0
 70
     0
 40
0.0
 41
0.7
 50
0.0
 71
     0
 42
4.0
  3
TXT
  4
bigfont
  0
ENDTAB
  0
TABLE
  2
VIEW
  5
6
330
0
100
AcDbSymbolTable
 70
     0
  0
ENDTAB
  0
TABLE
  2
UCS
  5
7
330
0
100
AcDbSymbolTable
 70
     0
  0
ENDTAB
  0
TABLE
  2
APPID
  5
9
330
0
100
AcDbSymbolTable
 70
     1
  0
APPID
  5
12
330
9
100
AcDbSymbolTableRecord
100
AcDbRegAppTableRecord
  2
ACAD
 70
     0
  0
ENDTAB
  0
TABLE
  2
DIMSTYLE
  5
A
330
0
100
AcDbSymbolTable
 70
     1
100
AcDbDimStyleTable
  0
DIMSTYLE
105
27
330
A
100
AcDbSymbolTableRecord
100
AcDbDimStyleTableRecord
  2
ISO-25
 70
     0
 41
2.5
 42
0.625
 43
3.75
 44
1.25
 73
     0
 74
     0
 77
     1
 78
     8
140
2.5
141
2.5
143
0.0393700787
147
0.625
171
     3
172
     1
178
     0
271
     2
272
     2
274
     3
278
    44
283
     0
284
     8
340
11
  0
ENDTAB
  0
TABLE
  2
BLOCK_RECORD
  5
1
330
0
100
AcDbSymbolTable
 70
     1
  0
BLOCK_RECORD
  5
1F
330
1
100
AcDbSymbolTableRecord
100
AcDbBlockTableRecord
  2
*Model_Space
340
22
  0
BLOCK_RECORD
  5
1B
330
1
100
AcDbSymbolTableRecord
100
AcDbBlockTableRecord
  2
*Paper_Space
340
1E
  0
BLOCK_RECORD
  5
23
330
1
100
AcDbSymbolTableRecord
100
AcDbBlockTableRecord
  2
*Paper_Space0
340
26
  0
ENDTAB
  0
ENDSEC
  0
SECTION
  2
BLOCKS
  0
BLOCK
  5
20
330
1F
100
AcDbEntity
  8
0
100
AcDbBlockBegin
  2
*Model_Space
 70
     0
 10
0.0
 20
0.0
 30
0.0
  3
*Model_Space
  1
*Model_Space
  0
ENDBLK
  5
21
330
1F
100
AcDbEntity
  8
0
100
AcDbBlockEnd
  0
BLOCK
  5
1C
330
1B
100
AcDbEntity
 67
     1
  8
0
100
AcDbBlockBegin
  2
*Paper_Space
 70
     0
 10
0.0
 20
0.0
 30
0.0
  3
*Paper_Space
  1
*Paper_Space
  0
ENDBLK
  5
1D
330
1B
100
AcDbEntity
 67
     1
  8
0
100
AcDbBlockEnd
  0
BLOCK
  5
24
330
23
100
AcDbEntity
  8
0
100
AcDbBlockBegin
  2
*Paper_Space0
 70
     0
 10
0.0
 20
0.0
 30
0.0
  3
*Paper_Space0
  1
*Paper_Space0
  0
ENDBLK
  5
25
330
23
100
AcDbEntity
  8
0
100
AcDbBlockEnd
  0
ENDSEC
  0
SECTION
  2
ENTITIES
  0
LINE
  5
79
330
1F
100
AcDbEntity
  8
0
  6
Continuous
370
    15
100
AcDbLine
 10
166.942286929
 20
100.4995183287
 30
0.0
 11
166.942286929
 21
99.4923030299
 31
0.0
  0
LINE
  5
7A
330
1F
100
AcDbEntity
  8
0
  6
Continuous
370
    15
100
AcDbLine
 10
258.9422871078
 20
99.4923030299
 30
0.0
 11
258.9422871078
 21
100.4995183287
 31
0.0
  0
LINE
  5
7B
330
1F
100
AcDbEntity
  8
0
  6
Continuous
370
    15
100
AcDbLine
 10
191.2842333967
 20
105.8152719768
 30
0.0
 11
192.0664810295
 21
105.9480208753
 31
0.0
  0
SPLINE
  5
7C
330
1F
100
AcDbEntity
  8
0
  6
Continuous
370
    15
100
AcDbSpline
210
0.0
220
0.0
230
1.0
 70
     8
 71
     3
 72
    13
 73
     9
 74
     0
 42
0.000000001
 43
0.00000001
 40
0.0
 40
0.0
 40
0.0
 40
0.0
 40
0.1621760700867289
 40
0.3280061971116749
 40
0.5039438698085312
 40
0.6734159401666446
 40
0.8411359205196886
 40
1.0
 40
1.0
 40
1.0
 40
1.0
 10
174.9293465817864
 20
97.98677449294036
 30
0.0
 10
174.9325497479312
 20
98.19338905414119
 30
0.0
 10
174.9390282520983
 20
98.61127349573079
 30
0.0
 10
175.2217970676977
 20
99.27928515054218
 30
0.0
 10
175.7297173261943
 20
99.99016540417563
 30
0.0
 10
176.5060371579818
 20
100.7186373291418
 30
0.0
 10
177.4761680018636
 20
101.4232934416289
 30
0.0
 10
178.3056429927987
 20
101.8748251319949
 30
0.0
 10
178.7091341520245
 20
102.0944689394201
 30
0.0
  0
SPLINE
  5
7D
330
1F
100
AcDbEntity
  8
0
  6
Continuous
370
    15
100
AcDbSpline
210
0.0
220
0.0
230
1.0
 70
     8
 71
     3
 72
    11
 73
     7
 74
     0
 42
0.000000001
 43
0.00000001
 40
0.0
 40
0.0
 40
0.0
 40
0.0
 40
0.2950272184631532
 40
0.6211774760497268
 40
0.9467395753854734
 40
0.9999999999999999
 40
0.9999999999999999
 40
0.9999999999999999
 40
0.9999999999999999
 10
247.909389128774
 20
101.68809064379
 30
0.0
 10
248.2579696134244
 20
101.4755636366264
 30
0.0
 10
248.9919030680502
 20
101.0280897032384
 30
0.0
 10
249.7996688651801
 20
100.336812303897
 30
0.0
 10
250.3003411304419
 20
99.82110427273517
 30
0.0
 10
250.4448191502855
 20
99.55733985035289
 30
0.0
 10
250.4651319886144
 20
99.52025598060882
 30
0.0
  0
LINE
  5
7E
330
1F
100
AcDbEntity
  8
0
  6
Continuous
370
    15
100
AcDbLine
 10
177.6616234983
 20
122.3295334297
 30
0.0
 11
177.1949899102
 21
142.878742755
 31
0.0
  0
LINE
  5
7F
330
1F
100
AcDbEntity
  8
0
  6
Continuous
370
    15
100
AcDbLine
 10
248.7806935514
 20
146.7577721992
 30
0.0
 11
248.2217360938
 21
122.324266574
 31
0.0
  0
LINE
  5
80
330
1F
100
AcDbEntity
  8
0
  6
Continuous
370
    15
100
AcDbLine
 10
252.5422868038
 20
113.6793125307
 30
0.0
 11
252.5422868038
 21
114.7107065053
 31
0.0
  0
LINE
  5
81
330
1F
100
AcDbEntity
  8
0
  6
Continuous
370
    15
100
AcDbLine
 10
173.342287233
 20
114.7107065053
 30
0.0
 11
173.342287233
 21
113.6793125307
 31
0.0
  0
LINE
  5
82
330
1F
100
AcDbEntity
  8
0
  6
Continuous
370
    15
100
AcDbLine
 10
173.342287233
 20
116.1595945827
 30
0.0
 11
173.342287233
 21
115.130973699
 31
0.0
  0
LINE
  5
83
330
1F
100
AcDbEntity
  8
0
  6
Continuous
370
    15
100
AcDbLine
 10
252.5422868038
 20
115.130973699
 30
0.0
 11
252.5422868038
 21
116.1595945827
 31
0.0
  0
LINE
  5
84
330
1F
100
AcDbEntity
  8
0
  6
Continuous
370
    15
100
AcDbLine
 10
173.342287233
 20
117.60848266
 30
0.0
 11
173.342287233
 21
116.5826348672
 31
0.0
  0
LINE
  5
85
330
1F
100
AcDbEntity
  8
0
  6
Continuous
370
    15
100
AcDbLine
 10
252.5422868038
 20
116.5826348672
 30
0.0
 11
252.5422868038
 21
117.60848266
 31
0.0
  0
LINE
  5
86
330
1F
100
AcDbEntity
  8
0
  6
Continuous
370
    15
100
AcDbLine
 10
173.342287233
 20
119.0573743357
 30
0.0
 11
173.342287233
 21
118.0342995133
 31
0.0
  0
LINE
  5
87
330
1F
100
AcDbEntity
  8
0
  6
Continuous
370
    15
100
AcDbLine
 10
252.5422868038
 20
118.0342995133
 30
0.0
 11
252.5422868038
 21
119.0573743357
 31
0.0
  0
LINE
  5
88
330
1F
100
AcDbEntity
  8
0
  6
Continuous
370
    15
100
AcDbLine
 10
173.342287233
 20
120.506262413
 30
0.0
 11
173.342287233
 21
119.4859606816
 31
0.0
  0
LINE
  5
89
330
1F
100
AcDbEntity
  8
0
  6
Continuous
370
    15
100
AcDbLine
 10
252.5422868038
 20
119.4859606816
 30
0.0
 11
252.5422868038
 21
120.506262413
 31
0.0
  0
LINE
  5
8A
330
1F
100
AcDbEntity
  8
0
  6
Continuous
370
    15
100
AcDbLine
 10
252.5422868038
 20
120.9376218498
 30
0.0
 11
252.5422868038
 21
121.9551504904
 31
0.0
  0
LINE
  5
8B
330
1F
100
AcDbEntity
  8
0
  6
Continuous
370
    15
100
AcDbLine
 10
173.342287233
 20
121.9551504904
 30
0.0
 11
173.342287233
 21
120.9376218498
 31
0.0
  0
LINE
  5
8C
330
1F
100
AcDbEntity
  8
0
  6
Continuous
370
    15
100
AcDbLine
 10
173.342287233
 20
123.4040385677
 30
0.0
 11
173.342287233
 21
122.3892830181
 31
0.0
  0
LINE
  5
8D
330
1F
100
AcDbEntity
  8
0
  6
Continuous
370
    15
100
AcDbLine
 10
252.5422868038
 20
122.3892830181
 30
0.0
 11
252.5422868038
 21
123.4040385677
 31
0.0
  0
LINE
  5
8E
330
1F
100
AcDbEntity
  8
0
  6
Continuous
370
    15
100
AcDbLine
 10
173.342287233
 20
124.852926645
 30
0.0
 11
173.342287233
 21
123.8409441863
 31
0.0
  0
LINE
  5
8F
330
1F
100
AcDbEntity
  8
0
  6
Continuous
370
    15
100
AcDbLine
 10
252.5422868038
 20
123.8409441863
 30
0.0
 11
252.5422868038
 21
124.852926645
 31
0.0
  0
LINE
  5
90
330
1F
100
AcDbEntity
  8
0
  6
Continuous
370
    15
100
AcDbLine
 10
252.5422868038
 20
125.2926088324
 30
0.0
 11
252.5422868038
 21
126.3018183207
 31
0.0
  0
LINE
  5
91
330
1F
100
AcDbEntity
  8
0
  6
Continuous
370
    15
100
AcDbLine
 10
173.342287233
 20
126.3018183207
 30
0.0
 11
173.342287233
 21
125.2926088324
 31
0.0
  0
LINE
  5
92
330
1F
100
AcDbEntity
  8
0
  6
Continuous
370
    15
100
AcDbLine
 10
173.342287233
 20
127.7507063981
 30
0.0
 11
173.342287233
 21
126.7442700007
 31
0.0
  0
LINE
  5
93
330
1F
100
AcDbEntity
  8
0
  6
Continuous
370
    15
100
AcDbLine
 10
252.5422868038
 20
126.7442700007
 30
0.0
 11
252.5422868038
 21
127.7507063981
 31
0.0
  0
LINE
  5
94
330
1F
100
AcDbEntity
  8
0
  6
Continuous
370
    15
100
AcDbLine
 10
173.0422858799
 20
106.5271234708
 30
0.0
 11
173.0002683307
 21
106.5271234708
 31
0.0
  0
LINE
  5
95
330
1F
100
AcDbEntity
  8
0
  6
Continuous
370
    15
100
AcDbLine
 10
252.5422868038
 20
128.195931169
 30
0.0
 11
252.5422868038
 21
129.1995944754
 31
0.0
  0
LINE
  5
96
330
1F
100
AcDbEntity
  8
0
  6
Continuous
370
    15
100
AcDbLine
 10
173.342287233
 20
129.1995944754
 30
0.0
 11
173.342287233
 21
128.195931169
 31
0.0
  0
LINE
  5
97
330
1F
100
AcDbEntity
  8
0
  6
Continuous
370
    15
100
AcDbLine
 10
173.342287233
 20
130.6484825527
 30
0.0
 11
173.342287233
 21
129.6475923372
 31
0.0
  0
LINE
  5
98
330
1F
100
AcDbEntity
  8
0
  6
Continuous
370
    15
100
AcDbLine
 10
252.5422868038
 20
129.6475923372
 30
0.0
 11
252.5422868038
 21
130.6484825527
 31
0.0
  0
LINE
  5
99
330
1F
100
AcDbEntity
  8
0
  6
Continuous
370
    15
100
AcDbLine
 10
252.5422868038
 20
131.0992551841
 30
0.0
 11
252.5422868038
 21
132.0973724292
 31
0.0
  0
LINE
  5
9A
330
1F
100
AcDbEntity
  8
0
  6
Continuous
370
    15
100
AcDbLine
 10
173.342287233
 20
132.0973724292
 30
0.0
 11
173.342287233
 21
131.0992551841
 31
0.0
  0
LINE
  5
9B
330
1F
100
AcDbEntity
  8
0
  6
Continuous
370
    15
100
AcDbLine
 10
173.342287233
 20
133.5462605066
 30
0.0
 11
173.342287233
 21
132.5509163524
 31
0.0
  0
LINE
  5
9C
330
1F
100
AcDbEntity
  8
0
  6
Continuous
370
    15
100
AcDbLine
 10
252.5422868038
 20
132.5509163524
 30
0.0
 11
252.5422868038
 21
133.5462605066
 31
0.0
  0
LINE
  5
9D
330
1F
100
AcDbEntity
  8
0
  6
Continuous
370
    15
100
AcDbLine
 10
173.342287233
 20
134.9951485839
 30
0.0
 11
173.342287233
 21
134.0025775206
 31
0.0
  0
LINE
  5
9E
330
1F
100
AcDbEntity
  8
0
  6
Continuous
370
    15
100
AcDbLine
 10
252.5422868038
 20
134.0025775206
 30
0.0
 11
252.5422868038
 21
134.9951485839
 31
0.0
  0
LINE
  5
9F
330
1F
100
AcDbEntity
  8
0
  6
Continuous
370
    15
100
AcDbLine
 10
252.5422868038
 20
135.4542404881
 30
0.0
 11
252.5422868038
 21
136.4440384604
 31
0.0
  0
LINE
  5
A0
330
1F
100
AcDbEntity
  8
0
  6
Continuous
370
    15
100
AcDbLine
 10
173.342287233
 20
136.4440384604
 30
0.0
 11
173.342287233
 21
135.4542404881
 31
0.0
  0
LINE
  5
A1
330
1F
100
AcDbEntity
  8
0
  6
Continuous
370
    15
100
AcDbLine
 10
250.9242926444
 20
146.8472649128
 30
0.0
 11
249.4806457961
 21
146.8472649128
 31
0.0
  0
LINE
  5
A2
330
1F
100
AcDbEntity
  8
0
  6
Continuous
370
    15
100
AcDbLine
 10
173.342287233
 20
137.8929265378
 30
0.0
 11
173.342287233
 21
136.9059015358
 31
0.0
  0
LINE
  5
A3
330
1F
100
AcDbEntity
  8
0
  6
Continuous
370
    15
100
AcDbLine
 10
252.5422868038
 20
136.9059015358
 30
0.0
 11
252.5422868038
 21
137.8929265378
 31
0.0
  0
LINE
  5
A4
330
1F
100
AcDbEntity
  8
0
  6
Continuous
370
    15
100
AcDbLine
 10
252.5422868038
 20
138.3575627041
 30
0.0
 11
252.5422868038
 21
139.3418146151
 31
0.0
  0
LINE
  5
A5
330
1F
100
AcDbEntity
  8
0
  6
Continuous
370
    15
100
AcDbLine
 10
173.342287233
 20
139.3418146151
 30
0.0
 11
173.342287233
 21
138.3575627041
 31
0.0
  0
LINE
  5
A6
330
1F
100
AcDbEntity
  8
0
  6
Continuous
370
    15
100
AcDbLine
 10
252.5422868038
 20
139.8092256715
 30
0.0
 11
252.5422868038
 21
140.7907044916
 31
0.0
  0
LINE
  5
A7
330
1F
100
AcDbEntity
  8
0
  6
Continuous
370
    15
100
AcDbLine
 10
173.342287233
 20
140.7907044916
 30
0.0
 11
173.342287233
 21
139.8092256715
 31
0.0
  0
LINE
  5
A8
330
1F
100
AcDbEntity
  8
0
  6
Continuous
370
    15
100
AcDbLine
 10
252.5422868038
 20
141.2608868398
 30
0.0
 11
252.5422868038
 21
142.2395925689
 31
0.0
  0
LINE
  5
A9
330
1F
100
AcDbEntity
  8
0
  6
Continuous
370
    15
100
AcDbLine
 10
173.342287233
 20
142.2395925689
 30
0.0
 11
173.342287233
 21
141.2608868398
 31
0.0
  0
LINE
  5
AA
330
1F
100
AcDbEntity
  8
0
  6
Continuous
370
    15
100
AcDbLine
 10
252.5422868038
 20
142.7125496867
 30
0.0
 11
252.5422868038
 21
143.6884824455
 31
0.0
  0
LINE
  5
AB
330
1F
100
AcDbEntity
  8
0
  6
Continuous
370
    15
100
AcDbLine
 10
173.342287233
 20
143.6884824455
 30
0.0
 11
173.342287233
 21
142.7125496867
 31
0.0
  0
LINE
  5
AC
330
1F
100
AcDbEntity
  8
0
  6
Continuous
370
    15
100
AcDbLine
 10
252.5422868038
 20
144.1642108549
 30
0.0
 11
252.5422868038
 21
145.1373705228
 31
0.0
  0
LINE
  5
AD
330
1F
100
AcDbEntity
  8
0
  6
Continuous
370
    15
100
AcDbLine
 10
173.342287233
 20
145.1373705228
 30
0.0
 11
173.342287233
 21
144.1642108549
 31
0.0
  0
LINE
  5
AE
330
1F
100
AcDbEntity
  8
0
  6
Continuous
370
    15
100
AcDbLine
 10
173.342287233
 20
110.6951289963
 30
0.0
 11
173.342287233
 21
109.6637350217
 31
0.0
  0
LINE
  5
AF
330
1F
100
AcDbEntity
  8
0
  6
Continuous
370
    15
100
AcDbLine
 10
252.5422868038
 20
109.6637350217
 30
0.0
 11
252.5422868038
 21
110.6951289963
 31
0.0
  0
LINE
  5
B0
330
1F
100
AcDbEntity
  8
0
  6
Continuous
370
    15
100
AcDbLine
 10
252.5422868038
 20
111.112623099
 30
0.0
 11
252.5422868038
 21
112.1412439827
 31
0.0
  0
LINE
  5
B1
330
1F
100
AcDbEntity
  8
0
  6
Continuous
370
    15
100
AcDbLine
 10
173.342287233
 20
112.1412439827
 30
0.0
 11
173.342287233
 21
111.112623099
 31
0.0
  0
LINE
  5
B2
330
1F
100
AcDbEntity
  8
0
  6
Continuous
370
    15
100
AcDbLine
 10
173.342287233
 20
113.5873589691
 30
0.0
 11
173.342287233
 21
112.5615111764
 31
0.0
  0
LINE
  5
B3
330
1F
100
AcDbEntity
  8
0
  6
Continuous
370
    15
100
AcDbLine
 10
252.5422868038
 20
112.5615111764
 30
0.0
 11
252.5422868038
 21
113.5873589691
 31
0.0
  0
LINE
  5
B4
330
1F
100
AcDbEntity
  8
0
  6
Continuous
370
    15
100
AcDbLine
 10
173.342287233
 20
115.0334776744
 30
0.0
 11
173.342287233
 21
114.7107080417
 31
0.0
  0
LINE
  5
B5
330
1F
100
AcDbEntity
  8
0
  6
Continuous
370
    15
100
AcDbLine
 10
252.5422868038
 20
114.7107080417
 30
0.0
 11
252.5422868038
 21
115.0334776744
 31
0.0
  0
LINE
  5
B6
330
1F
100
AcDbEntity
  8
0
  6
Continuous
370
    15
100
AcDbLine
 10
173.342287233
 20
116.4795926608
 30
0.0
 11
173.342287233
 21
116.1595961191
 31
0.0
  0
LINE
  5
B7
330
1F
100
AcDbEntity
  8
0
  6
Continuous
370
    15
100
AcDbLine
 10
252.5422868038
 20
116.1595961191
 30
0.0
 11
252.5422868038
 21
116.4795926608
 31
0.0
  0
LINE
  5
B8
330
1F
100
AcDbEntity
  8
0
  6
Continuous
370
    15
100
AcDbLine
 10
173.342287233
 20
117.9257076472
 30
0.0
 11
173.342287233
 21
117.6084841964
 31
0.0
  0
LINE
  5
B9
330
1F
100
AcDbEntity
  8
0
  6
Continuous
370
    15
100
AcDbLine
 10
252.5422868038
 20
117.6084841964
 30
0.0
 11
252.5422868038
 21
117.9257076472
 31
0.0
  0
LINE
  5
BA
330
1F
100
AcDbEntity
  8
0
  6
Continuous
370
    15
100
AcDbLine
 10
173.342287233
 20
119.3718226337
 30
0.0
 11
173.342287233
 21
119.0573722738
 31
0.0
  0
LINE
  5
BB
330
1F
100
AcDbEntity
  8
0
  6
Continuous
370
    15
100
AcDbLine
 10
252.5422868038
 20
119.0573722738
 30
0.0
 11
252.5422868038
 21
119.3718226337
 31
0.0
  0
LINE
  5
BC
330
1F
100
AcDbEntity
  8
0
  6
Continuous
370
    15
100
AcDbLine
 10
173.342287233
 20
120.8179376201
 30
0.0
 11
173.342287233
 21
120.5062603511
 31
0.0
  0
LINE
  5
BD
330
1F
100
AcDbEntity
  8
0
  6
Continuous
370
    15
100
AcDbLine
 10
252.5422868038
 20
120.5062603511
 30
0.0
 11
252.5422868038
 21
120.8179376201
 31
0.0
  0
LINE
  5
BE
330
1F
100
AcDbEntity
  8
0
  6
Continuous
370
    15
100
AcDbLine
 10
252.5422868038
 20
121.9551520268
 30
0.0
 11
252.5422868038
 21
122.2640563254
 31
0.0
  0
LINE
  5
BF
330
1F
100
AcDbEntity
  8
0
  6
Continuous
370
    15
100
AcDbLine
 10
173.342287233
 20
122.2640563254
 30
0.0
 11
173.342287233
 21
121.9551520268
 31
0.0
  0
LINE
  5
C0
330
1F
100
AcDbEntity
  8
0
  6
Continuous
370
    15
100
AcDbLine
 10
173.342287233
 20
123.7101713118
 30
0.0
 11
173.342287233
 21
123.4040401041
 31
0.0
  0
LINE
  5
C1
330
1F
100
AcDbEntity
  8
0
  6
Continuous
370
    15
100
AcDbLine
 10
252.5422868038
 20
123.4040401041
 30
0.0
 11
252.5422868038
 21
123.7101713118
 31
0.0
  0
LINE
  5
C2
330
1F
100
AcDbEntity
  8
0
  6
Continuous
370
    15
100
AcDbLine
 10
173.342287233
 20
125.1562862982
 30
0.0
 11
173.342287233
 21
124.8529281815
 31
0.0
  0
LINE
  5
C3
330
1F
100
AcDbEntity
  8
0
  6
Continuous
370
    15
100
AcDbLine
 10
252.5422868038
 20
124.8529281815
 30
0.0
 11
252.5422868038
 21
125.1562862982
 31
0.0
  0
LINE
  5
C4
330
1F
100
AcDbEntity
  8
0
  6
Continuous
370
    15
100
AcDbLine
 10
252.5422868038
 20
126.3018162588
 30
0.0
 11
252.5422868038
 21
126.6024012846
 31
0.0
  0
LINE
  5
C5
330
1F
100
AcDbEntity
  8
0
  6
Continuous
370
    15
100
AcDbLine
 10
173.342287233
 20
126.6024012846
 30
0.0
 11
173.342287233
 21
126.3018162588
 31
0.0
  0
LINE
  5
C6
330
1F
100
AcDbEntity
  8
0
  6
Continuous
370
    15
100
AcDbLine
 10
252.5422868038
 20
127.7507061353
 30
0.0
 11
252.5422868038
 21
128.0485181907
 31
0.0
  0
LINE
  5
C7
330
1F
100
AcDbEntity
  8
0
  6
Continuous
370
    15
100
AcDbLine
 10
173.342287233
 20
128.0485181907
 30
0.0
 11
173.342287233
 21
127.7507061353
 31
0.0
  0
LINE
  5
C8
330
1F
100
AcDbEntity
  8
0
  6
Continuous
370
    15
100
AcDbLine
 10
252.5422868038
 20
129.1995942126
 30
0.0
 11
252.5422868038
 21
129.4946331771
 31
0.0
  0
LINE
  5
C9
330
1F
100
AcDbEntity
  8
0
  6
Continuous
370
    15
100
AcDbLine
 10
173.342287233
 20
129.4946331771
 30
0.0
 11
173.342287233
 21
129.1995942126
 31
0.0
  0
LINE
  5
CA
330
1F
100
AcDbEntity
  8
0
  6
Continuous
370
    15
100
AcDbLine
 10
252.5422868038
 20
130.64848229
 30
0.0
 11
252.5422868038
 21
130.9407481635
 31
0.0
  0
LINE
  5
CB
330
1F
100
AcDbEntity
  8
0
  6
Continuous
370
    15
100
AcDbLine
 10
173.342287233
 20
130.9407481635
 30
0.0
 11
173.342287233
 21
130.64848229
 31
0.0
  0
LINE
  5
CC
330
1F
100
AcDbEntity
  8
0
  6
Continuous
370
    15
100
AcDbLine
 10
173.342287233
 20
132.3868649491
 30
0.0
 11
173.342287233
 21
132.0973721665
 31
0.0
  0
LINE
  5
CD
330
1F
100
AcDbEntity
  8
0
  6
Continuous
370
    15
100
AcDbLine
 10
252.5422868038
 20
132.0973721665
 30
0.0
 11
252.5422868038
 21
132.3868649491
 31
0.0
  0
LINE
  5
CE
330
1F
100
AcDbEntity
  8
0
  6
Continuous
370
    15
100
AcDbLine
 10
173.342287233
 20
133.8329800561
 30
0.0
 11
173.342287233
 21
133.5462602438
 31
0.0
  0
LINE
  5
CF
330
1F
100
AcDbEntity
  8
0
  6
Continuous
370
    15
100
AcDbLine
 10
252.5422868038
 20
133.5462602438
 30
0.0
 11
252.5422868038
 21
133.8329800561
 31
0.0
  0
LINE
  5
D0
330
1F
100
AcDbEntity
  8
0
  6
Continuous
370
    15
100
AcDbLine
 10
252.5422868038
 20
134.9951483212
 30
0.0
 11
252.5422868038
 21
135.2790950425
 31
0.0
  0
LINE
  5
D1
330
1F
100
AcDbEntity
  8
0
  6
Continuous
370
    15
100
AcDbLine
 10
173.342287233
 20
135.2790950425
 30
0.0
 11
173.342287233
 21
134.9951483212
 31
0.0
  0
LINE
  5
D2
330
1F
100
AcDbEntity
  8
0
  6
Continuous
370
    15
100
AcDbLine
 10
252.5422868038
 20
136.4440381977
 30
0.0
 11
252.5422868038
 21
136.7252118281
 31
0.0
  0
LINE
  5
D3
330
1F
100
AcDbEntity
  8
0
  6
Continuous
370
    15
100
AcDbLine
 10
173.342287233
 20
136.7252118281
 30
0.0
 11
173.342287233
 21
136.4440381977
 31
0.0
  0
LINE
  5
D4
330
1F
100
AcDbEntity
  8
0
  6
Continuous
370
    15
100
AcDbLine
 10
252.5422868038
 20
137.892926275
 30
0.0
 11
252.5422868038
 21
138.1713268145
 31
0.0
  0
LINE
  5
D5
330
1F
100
AcDbEntity
  8
0
  6
Continuous
370
    15
100
AcDbLine
 10
173.342287233
 20
138.1713268145
 30
0.0
 11
173.342287233
 21
137.892926275
 31
0.0
  0
LINE
  5
D6
330
1F
100
AcDbEntity
  8
0
  6
Continuous
370
    15
100
AcDbLine
 10
252.5422868038
 20
139.3418161515
 30
0.0
 11
252.5422868038
 21
139.6174437206
 31
0.0
  0
LINE
  5
D7
330
1F
100
AcDbEntity
  8
0
  6
Continuous
370
    15
100
AcDbLine
 10
173.342287233
 20
139.6174437206
 30
0.0
 11
173.342287233
 21
139.3418161515
 31
0.0
  0
LINE
  5
D8
330
1F
100
AcDbEntity
  8
0
  6
Continuous
370
    15
100
AcDbLine
 10
252.5422868038
 20
140.7907042289
 30
0.0
 11
252.5422868038
 21
141.063558707
 31
0.0
  0
LINE
  5
D9
330
1F
100
AcDbEntity
  8
0
  6
Continuous
370
    15
100
AcDbLine
 10
173.342287233
 20
141.063558707
 30
0.0
 11
173.342287233
 21
140.7907042289
 31
0.0
  0
LINE
  5
DA
330
1F
100
AcDbEntity
  8
0
  6
Continuous
370
    15
100
AcDbLine
 10
248.6922886873
 20
142.8932933792
 30
0.0
 11
248.6922886873
 21
147.8298843782
 31
0.0
  0
SPLINE
  5
DB
330
1F
100
AcDbEntity
  8
0
  6
Continuous
370
    15
100
AcDbSpline
210
0.0
220
0.0
230
1.0
 70
     8
 71
     3
 72
    11
 73
     7
 74
     0
 42
0.000000001
 43
0.00000001
 40
0.0
 40
0.0
 40
0.0
 40
0.0
 40
0.1068641697311302
 40
0.503708693967169
 40
0.9023048088805955
 40
1.0
 40
1.0
 40
1.0
 40
1.0
 10
181.2954132164414
 20
152.3965233559566
 30
0.0
 10
181.1633552101628
 20
152.3335408727202
 30
0.0
 10
180.5408943232455
 20
152.036670327114
 30
0.0
 10
179.6638485884212
 20
151.4646147928093
 30
0.0
 10
178.8617558417569
 20
150.8894687007305
 30
0.0
 10
178.5567198774367
 20
150.5438834524359
 30
0.0
 10
178.4966733957227
 20
150.4758548239474
 30
0.0
  0
SPLINE
  5
DC
330
1F
100
AcDbEntity
  8
0
  6
Continuous
370
    15
100
AcDbSpline
210
0.0
220
0.0
230
1.0
 70
     8
 71
     3
 72
    10
 73
     6
 74
     0
 42
0.000000001
 43
0.00000001
 40
0.0
 40
0.0
 40
0.0
 40
0.0
 40
0.3391112397765253
 40
0.8265755998570786
 40
1.0
 40
1.0
 40
1.0
 40
1.0
 10
247.9893897379334
 20
149.7748772557588
 30
0.0
 10
247.8466119996784
 20
149.968095568704
 30
0.0
 10
247.4985946507926
 20
150.439060621444
 30
0.0
 10
246.9108157670953
 20
150.9753127523425
 30
0.0
 10
246.4009461216257
 20
151.3099237962561
 30
0.0
 10
246.2671507800515
 20
151.3977293742361
 30
0.0
  0
LINE
  5
DD
330
1F
100
AcDbEntity
  8
0
  6
Continuous
370
    15
100
AcDbLine
 10
245.5422875191
 20
151.7833632036
 30
0.0
 11
245.5422875191
 21
156.4266240221
 31
0.0
  0
LINE
  5
DE
330
1F
100
AcDbEntity
  8
0
  6
Continuous
370
    15
100
AcDbLine
 10
180.3422865177
 20
156.4266240221
 30
0.0
 11
180.3422865177
 21
151.8652235106
 31
0.0
  0
LINE
  5
DF
330
1F
100
AcDbEntity
  8
0
  6
Continuous
370
    15
100
AcDbLine
 10
175.1422879005
 20
99.0039919838
 30
0.0
 11
175.1422879005
 21
98.0847024676
 31
0.0
  0
LINE
  5
E0
330
1F
100
AcDbEntity
  8
0
  6
Continuous
370
    15
100
AcDbLine
 10
250.5597953404
 20
99.0423329348
 30
0.0
 11
250.5597953404
 21
99.5155776722
 31
0.0
  0
LINE
  5
E1
330
1F
100
AcDbEntity
  8
0
  6
Continuous
370
    15
100
AcDbLine
 10
249.742287835
 20
98.0847024676
 30
0.0
 11
249.742287835
 21
98.9887529541
 31
0.0
  0
LINE
  5
E2
330
1F
100
AcDbEntity
  8
0
  6
Continuous
370
    15
100
AcDbLine
 10
250.6058697308
 20
97.7394454361
 30
0.0
 11
250.6058697308
 21
98.7053732199
 31
0.0
  0
LINE
  5
E3
330
1F
100
AcDbEntity
  8
0
  6
Continuous
370
    15
100
AcDbLine
 10
250.5597953404
 20
97.1270720004
 30
0.0
 11
250.5597953404
 21
97.6100358923
 31
0.0
  0
SPLINE
  5
E4
330
1F
100
AcDbEntity
  8
0
  6
Continuous
370
    15
100
AcDbSpline
210
0.0
220
0.0
230
1.0
 70
     8
 71
     3
 72
    10
 73
     6
 74
     0
 42
0.000000001
 43
0.00000001
 40
0.0
 40
0.0
 40
0.0
 40
0.0
 40
0.1119459043042406
 40
0.6838627026264822
 40
1.0
 40
1.0
 40
1.0
 40
1.0
 10
177.8699864352639
 20
152.4816502186193
 30
0.0
 10
177.9022479987098
 20
152.426973492721
 30
0.0
 10
178.099329616891
 20
152.0929606159128
 30
0.0
 10
178.5437573212323
 20
151.6368311190607
 30
0.0
 10
179.0536675304742
 20
151.25109879945
 30
0.0
 10
179.235189845651
 20
151.1137824201637
 30
0.0
  0
SPLINE
  5
E5
330
1F
100
AcDbEntity
  8
0
  6
Continuous
370
    15
100
AcDbSpline
210
0.0
220
0.0
230
1.0
 70
     8
 71
     3
 72
     9
 73
     5
 74
     0
 42
0.000000001
 43
0.00000001
 40
0.0
 40
0.0
 40
0.0
 40
0.0
 40
0.4721554608202128
 40
1.0
 40
1.0
 40
1.0
 40
1.0
 10
246.6708493138249
 20
151.1234280213325
 30
0.0
 10
246.9273799468324
 20
151.3241258276218
 30
0.0
 10
247.4706981000564
 20
151.7491930415871
 30
0.0
 10
247.8162179104543
 20
152.2111751474704
 30
0.0
 10
247.9985986555512
 20
152.4550298792597
 30
0.0
  0
LINE
  5
E6
330
1F
100
AcDbEntity
  8
0
  6
Continuous
370
    15
100
AcDbLine
 10
177.1922853495
 20
207.8621741568
 30
0.0
 11
177.1922853495
 21
154.3981798592
 31
0.0
  0
LINE
  5
E7
330
1F
100
AcDbEntity
  8
0
  6
Continuous
370
    15
100
AcDbLine
 10
248.6922886873
 20
154.3981798592
 30
0.0
 11
248.6922886873
 21
207.8621741568
 31
0.0
  0
SPLINE
  5
E8
330
1F
100
AcDbEntity
  8
0
  6
Continuous
370
    15
100
AcDbSpline
210
0.0
220
0.0
230
1.0
 70
     8
 71
     3
 72
    16
 73
    12
 74
     0
 42
0.000000001
 43
0.00000001
 40
0.0
 40
0.0
 40
0.0
 40
0.0
 40
0.0235109831065468
 40
0.135336985489923
 40
0.2480764853506296
 40
0.3664798927980227
 40
0.4915022579804829
 40
0.6202111832852709
 40
0.7494485603941803
 40
0.8780049696929221
 40
0.9999999999999999
 40
0.9999999999999999
 40
0.9999999999999999
 40
0.9999999999999999
 10
248.670044978946
 20
207.9218024011874
 30
0.0
 10
248.6756225609272
 20
207.9834793753892
 30
0.0
 10
248.7077289653358
 20
208.3385124135557
 30
0.0
 10
248.5139174138791
 20
208.9854224613344
 30
0.0
 10
248.0988202959257
 20
209.8234020678299
 30
0.0
 10
247.4292315820855
 20
210.6323598310172
 30
0.0
 10
246.518588022719
 20
211.4223914480518
 30
0.0
 10
245.3551611237459
 20
212.1886694416018
 30
0.0
 10
243.9509167450632
 20
212.9184248649046
 30
0.0
 10
242.370751450616
 20
213.5981901937853
 30
0.0
 10
241.1575573250614
 20
214.0108216399983
 30
0.0
 10
240.5668456757958
 20
214.2117344180913
 30
0.0
  0
SPLINE
  5
E9
330
1F
100
AcDbEntity
  8
0
  6
Continuous
370
    15
100
AcDbSpline
210
0.0
220
0.0
230
1.0
 70
     8
 71
     3
 72
    16
 73
    12
 74
     0
 42
0.000000001
 43
0.00000001
 40
0.0
 40
0.0
 40
0.0
 40
0.0
 40
0.0607641977099427
 40
0.1939427554525165
 40
0.327766326029795
 40
0.462415046879375
 40
0.597919096089289
 40
0.7331040344228974
 40
0.8495221204679317
 40
0.9732977406618786
 40
0.9999999999999999
 40
0.9999999999999999
 40
0.9999999999999999
 40
0.9999999999999999
 10
184.475015541404
 20
213.9145580435022
 30
0.0
 10
184.1945728741979
 20
213.8185002733513
 30
0.0
 10
183.2994763259962
 20
213.5119100552986
 30
0.0
 10
182.004155315597
 20
212.9479870160109
 30
0.0
 10
180.5909534980244
 20
212.2250963537512
 30
0.0
 10
179.4059056302087
 20
211.4531365108101
 30
0.0
 10
178.4482609279647
 20
210.6312344448323
 30
0.0
 10
177.7581689633847
 20
209.7875765021442
 30
0.0
 10
177.3388338059027
 20
208.905090799108
 30
0.0
 10
177.1598867731102
 20
208.2341371720644
 30
0.0
 10
177.2070407634159
 20
207.8571185487761
 30
0.0
 10
177.2154082263406
 20
207.7902166952568
 30
0.0
  0
LINE
  5
EA
330
1F
100
AcDbEntity
  8
0
  6
Continuous
370
    15
100
AcDbLine
 10
214.7922870189
 20
114.4601572815
 30
0.0
 11
214.7922870189
 21
114.5003672806
 31
0.0
  0
LINE
  5
EB
330
1F
100
AcDbEntity
  8
0
  6
Continuous
370
    15
100
AcDbLine
 10
211.0922870178
 20
114.5003672806
 30
0.0
 11
211.0922870178
 21
114.4601572815
 31
0.0
  0
LINE
  5
EC
330
1F
100
AcDbEntity
  8
0
  6
Continuous
370
    15
100
AcDbLine
 10
185.1254195625
 20
114.7294177633
 30
0.0
 11
184.9839982296
 21
114.7660202976
 31
0.0
  0
LINE
  5
ED
330
1F
100
AcDbEntity
  8
0
  6
Continuous
370
    15
100
AcDbLine
 10
184.056916898
 20
111.1840522363
 30
0.0
 11
184.1677852626
 21
111.155357392
 31
0.0
  0
LINE
  5
EE
330
1F
100
AcDbEntity
  8
0
  6
Continuous
370
    15
100
AcDbLine
 10
142.9450061823
 20
176.0195110527
 30
0.0
 11
142.8210210706
 21
175.7043335013
 31
0.0
  0
LINE
  5
EF
330
1F
100
AcDbEntity
  8
0
  6
Continuous
370
    15
100
AcDbLine
 10
185.1053197587
 20
143.5901177229
 30
0.0
 11
185.2293085957
 21
143.9052934106
 31
0.0
  0
LINE
  5
F0
330
1F
100
AcDbEntity
  8
0
  6
Continuous
370
    15
100
AcDbLine
 10
188.3099504466
 20
135.9306210773
 30
0.0
 11
188.0271506215
 21
136.0105583736
 31
0.0
  0
LINE
  5
F1
330
1F
100
AcDbEntity
  8
0
  6
Continuous
370
    15
100
AcDbLine
 10
217.3422869945
 20
120.144220743
 30
0.0
 11
208.5422870422
 21
120.144220743
 31
0.0
  0
SPLINE
  5
F2
330
1F
100
AcDbEntity
  8
0
  6
Continuous
370
    15
100
AcDbSpline
210
0.0
220
0.0
230
1.0
 70
     8
 71
     3
 72
    17
 73
    13
 74
     0
 42
0.000000001
 43
0.00000001
 40
0.0
 40
0.0
 40
0.0
 40
0.0
 40
0.1111046070352123
 40
0.222329705971756
 40
0.3319173543519433
 40
0.4386232918651179
 40
0.5429112607204656
 40
0.6461593418597763
 40
0.7500429617699406
 40
0.8559716550687213
 40
0.9646430994241427
 40
1.0
 40
1.0
 40
1.0
 40
1.0
 10
195.3460422063764
 20
106.5538567794315
 30
0.0
 10
195.2114826664842
 20
106.6557395803105
 30
0.0
 10
194.9422176581444
 20
106.8596156730078
 30
0.0
 10
194.3260615668471
 20
107.088580435561
 30
0.0
 10
193.642587413532
 20
107.2245189563887
 30
0.0
 10
192.9614143662496
 20
107.2512626846395
 30
0.0
 10
192.3654891495462
 20
107.1724501069547
 30
0.0
 10
191.9117706353486
 20
107.0007524402717
 30
0.0
 10
191.6412676330048
 20
106.7541924183762
 30
0.0
 10
191.5840353485429
 20
106.4557024793856
 30
0.0
 10
191.7084093574736
 20
106.2065903816049
 30
0.0
 10
191.8477381069247
 20
106.0697989469054
 30
0.0
 10
191.8819413239653
 20
106.036218604379
 30
0.0
  0
LINE
  5
F3
330
1F
100
AcDbEntity
  8
0
  6
Continuous
370
    15
100
AcDbLine
 10
191.881941324
 20
106.0362186044
 30
0.0
 11
191.9140179361
 21
106.0068147898
 31
0.0
  0
LWPOLYLINE
  5
F4
330
1F
100
AcDbEntity
  8
0
  6
Continuous
370
    15
100
AcDbPolyline
 90
       20
 70
   128
 43
0.0
 10
195.3781188185
 20
106.5244529648
 10
198.3935280422
 20
106.8813504534
 10
201.5160440187
 20
107.1700315203
 10
204.722679844
 20
107.3883720857
 10
207.9898274223
 20
107.5347639037
 10
211.2934348824
 20
107.6081290257
 10
214.6091813174
 20
107.6079284771
 10
217.9126559476
 20
107.5341632221
 10
221.1795390303
 20
107.3873760918
 10
224.3857799748
 20
107.1686488918
 10
227.5077744106
 20
106.8795898679
 10
230.5225372965
 20
106.5223279207
 10
233.4078770781
 20
106.0994933227
 10
236.1425493563
 20
105.6141998805
 10
238.7064207996
 20
105.0700189022
 10
241.0806190873
 20
104.4709570215
 10
243.2476632948
 20
103.821424862
 10
245.1915998662
 20
103.1262037728
 10
246.8981218244
 20
102.3904120825
 10
248.2780066038
 20
101.6645750282
  0
LWPOLYLINE
  5
F5
330
1F
100
AcDbEntity
  8
0
  6
Continuous
370
    15
100
AcDbPolyline
 90
       32
 70
   128
 43
0.0
 10
249.7651722933
 20
94.5809908065
 10
249.101504376
 20
94.0866251905
 10
247.7996532525
 20
93.297360536
 10
246.2411817814
 20
92.5398845258
 10
244.4375675822
 20
91.8197746774
 10
242.4020857269
 20
91.1423315487
 10
240.1497230584
 20
90.5125423407
 10
237.6970589811
 20
89.935044258
 10
235.0621518398
 20
89.4140888352
 10
232.264399221
 20
88.9535106004
 10
229.3243982548
 20
88.5567000789
 10
226.2637928779
 20
88.2265796883
 10
223.1051145772
 20
87.9655791524
 10
219.8716180118
 20
87.7756200741
 10
216.5871080196
 20
87.6581014728
 10
213.2757651979
 20
87.6138872504
 10
209.9619672353
 20
87.6433042626
 10
206.6701102721
 20
87.7461346054
 10
203.4244292135
 20
87.9216214008
 10
200.2488176058
 20
88.1684745811
 10
197.1666549052
 20
88.4848747461
 10
194.2006309236
 20
88.8684934105
 10
191.3725842441
 20
89.3165055385
 10
188.7033317889
 20
89.825614612
 10
186.2125263269
 20
90.3920709502
 10
183.9185018743
 20
91.0117054558
 10
181.8381526227
 20
91.6799556476
 10
179.9867895151
 20
92.3919022993
 10
178.3780415262
 20
93.1423041496
 10
177.0237569416
 20
93.9256362287
 10
175.9339009131
 20
94.7361320404
 10
175.5553182865
 20
95.0848885082
  0
ARC
  5
F6
330
1F
100
AcDbEntity
  8
0
  6
Continuous
370
    15
100
AcDbCircle
 10
198.2315440256
 20
58.5490929458
 30
0.0
 40
47.85201567539755
100
AcDbArc
 50
98.554752741
 51
114.5179156843
  0
LINE
  5
F7
330
1F
100
AcDbEntity
  8
0
  6
Continuous
370
    15
100
AcDbLine
 10
195.3781188185
 20
106.5244529648
 30
0.0
 11
195.3460422064
 21
106.5538567794
 31
0.0
  0
LWPOLYLINE
  5
F8
330
1F
100
AcDbEntity
  8
0
  6
Continuous
370
    15
100
AcDbPolyline
 90
       81
 70
   128
 43
0.0
 10
212.9422870184
 20
87.4384450683
 10
216.5394159219
 20
87.4750239803
 10
220.1143672409
 20
87.5845360634
 10
223.6451000626
 20
87.7663063943
 10
227.1098463515
 20
88.0192146004
 10
230.4872457589
 20
88.3416996806
 10
233.7564748431
 20
88.731774468
 10
236.8973769898
 20
89.1870352717
 10
239.8905862773
 20
89.7046724826
 10
242.7176532055
 20
90.2814975704
 10
245.3611452783
 20
90.9139517611
 10
247.8047606255
 20
91.5981378552
 10
250.0334416235
 20
92.3298366179
 10
252.0334382261
 20
93.1045361875
 10
253.792430898
 20
93.9174614819
 10
255.2995641435
 20
94.7636002317
 10
256.5455508138
 20
95.6377355212
 10
257.5227130855
 20
96.5344778473
 10
258.2250197137
 20
97.4482987447
 10
258.6481419111
 20
98.3735642314
 10
258.7894719745
 20
99.3045696993
 10
258.6481419111
 20
100.2355751672
 10
258.2250197137
 20
101.1608406539
 10
257.5227130855
 20
102.0746615513
 10
256.5455508138
 20
102.9714038773
 10
255.2995641435
 20
103.8455391668
 10
253.792430898
 20
104.6916779167
 10
252.0334382261
 20
105.504603211
 10
250.0334416235
 20
106.2793027806
 10
247.8047606255
 20
107.0110015434
 10
245.3611452783
 20
107.6951876374
 10
242.7176532055
 20
108.3276418282
 10
239.8905862773
 20
108.9044669159
 10
236.8973769898
 20
109.4221041268
 10
233.7564748431
 20
109.8773649305
 10
230.4872457589
 20
110.2674397179
 10
227.1098463515
 20
110.5899247981
 10
223.6451000626
 20
110.8428330042
 10
220.1143672409
 20
111.0246033351
 10
216.5394159219
 20
111.1341154182
 10
212.9422870184
 20
111.1706943302
 10
209.3451581149
 20
111.1341154182
 10
205.7702067959
 20
111.0246033351
 10
202.2394739742
 20
110.8428330042
 10
198.7747276852
 20
110.5899247981
 10
195.3973282779
 20
110.2674397179
 10
192.1280991937
 20
109.8773649305
 10
188.987197047
 20
109.4221041268
 10
185.9939877594
 20
108.9044669159
 10
183.1669208313
 20
108.3276418282
 10
180.5234287585
 20
107.6951876374
 10
178.0798134113
 20
107.0110015434
 10
175.8511324132
 20
106.2793027806
 10
173.8511358107
 20
105.504603211
 10
172.0921431387
 20
104.6916779167
 10
170.5850098933
 20
103.8455391668
 10
169.339023223
 20
102.9714038773
 10
168.3618609513
 20
102.0746615513
 10
167.659554323
 20
101.1608406539
 10
167.2364321257
 20
100.2355751672
 10
167.0951020623
 20
99.3045696993
 10
167.2364321257
 20
98.3735642314
 10
167.659554323
 20
97.4482987447
 10
168.3618609513
 20
96.5344778473
 10
169.339023223
 20
95.6377355212
 10
170.5850098933
 20
94.7636002317
 10
172.0921431387
 20
93.9174614819
 10
173.8511358107
 20
93.1045361875
 10
175.8511324132
 20
92.3298366179
 10
178.0798134113
 20
91.5981378552
 10
180.5234287585
 20
90.9139517611
 10
183.1669208313
 20
90.2814975704
 10
185.9939877594
 20
89.7046724826
 10
188.987197047
 20
89.1870352717
 10
192.1280991937
 20
88.731774468
 10
195.3973282779
 20
88.3416996806
 10
198.7747276852
 20
88.0192146004
 10
202.2394739742
 20
87.7663063943
 10
205.7702067959
 20
87.5845360634
 10
209.3451581149
 20
87.4750239803
 10
212.9422870184
 20
87.4384450683
  0
LWPOLYLINE
  5
F9
330
1F
100
AcDbEntity
  8
0
  6
Continuous
370
    15
100
AcDbPolyline
 90
       41
 70
   128
 43
0.0
 10
166.942286929
 20
99.4923030299
 10
167.0840901042
 20
100.4264116382
 10
167.5086241866
 20
101.3547611024
 10
168.2132702971
 20
102.271627832
 10
169.1936884726
 20
103.1713593449
 10
170.4438288415
 20
104.0484081335
 10
171.9559875036
 20
104.8973670984
 10
173.7208400572
 20
105.7130017275
 10
175.7275049294
 20
106.4902838427
 10
177.9636141563
 20
107.2244210068
 10
180.4153767134
 20
107.9108868952
 10
183.0676772351
 20
108.545449739
 10
185.9041654224
 20
109.1241973939
 10
188.9073529
 20
109.6435604799
 10
192.0587231124
 20
110.1003379326
 10
195.3388486708
 20
110.4917133935
 10
198.7275049741
 20
110.8152735301
 10
202.2038005943
 20
111.0690244261
 10
205.746301608
 20
111.2514002595
 10
209.3331685009
 20
111.3612777653
 10
212.9422870184
 20
111.3979791277
 10
216.5514055359
 20
111.3612777653
 10
220.1382724288
 20
111.2514002595
 10
223.6807734425
 20
111.0690244261
 10
227.1570690627
 20
110.8152735301
 10
230.545725366
 20
110.4917133935
 10
233.8258509243
 20
110.1003379326
 10
236.9772211368
 20
109.6435604799
 10
239.9804086144
 20
109.1241973939
 10
242.8168968017
 20
108.545449739
 10
245.4691973234
 20
107.9108868952
 10
247.9209598804
 20
107.2244210068
 10
250.1570691074
 20
106.4902838427
 10
252.1637339796
 20
105.7130017275
 10
253.9285865332
 20
104.8973670984
 10
255.4407451952
 20
104.0484081335
 10
256.6908855642
 20
103.1713593449
 10
257.6713037396
 20
102.271627832
 10
258.3759498502
 20
101.3547611024
 10
258.8004839326
 20
100.4264116382
 10
258.9422871078
 20
99.4923030299
  0
LWPOLYLINE
  5
FA
330
1F
100
AcDbEntity
  8
0
  6
Continuous
370
    15
100
AcDbPolyline
 90
       21
 70
   128
 43
0.0
 10
212.9422870184
 20
112.4051944266
 10
216.5514055359
 20
112.3684930642
 10
220.1382724288
 20
112.2586155584
 10
223.6807734425
 20
112.0762397249
 10
227.1570690627
 20
111.8224888289
 10
230.545725366
 20
111.4989286924
 10
233.8258509243
 20
111.1075532314
 10
236.9772211368
 20
110.6507757788
 10
239.9804086144
 20
110.1314126927
 10
242.8168968017
 20
109.5526650378
 10
245.4691973234
 20
108.918102194
 10
247.9209598804
 20
108.2316363057
 10
250.1570691074
 20
107.4974991416
 10
252.1637339796
 20
106.7202170264
 10
253.9285865332
 20
105.9045823972
 10
255.4407451952
 20
105.0556234324
 10
256.6908855642
 20
104.1785746438
 10
257.6713037396
 20
103.2788431309
 10
258.3759498502
 20
102.3619764012
 10
258.8004839326
 20
101.4336269371
 10
258.9422871078
 20
100.4995183287
  0
LWPOLYLINE
  5
FB
330
1F
100
AcDbEntity
  8
0
  6
Continuous
370
    15
100
AcDbPolyline
 90
       21
 70
   128
 43
0.0
 10
166.942286929
 20
100.4995183287
 10
167.0840901042
 20
101.4336269371
 10
167.5086241866
 20
102.3619764012
 10
168.2132702971
 20
103.2788431309
 10
169.1936884726
 20
104.1785746438
 10
170.4438288415
 20
105.0556234324
 10
171.9559875036
 20
105.9045823972
 10
173.7208400572
 20
106.7202170264
 10
175.7275049294
 20
107.4974991416
 10
177.9636141563
 20
108.2316363057
 10
180.4153767134
 20
108.918102194
 10
183.0676772351
 20
109.5526650378
 10
185.9041654224
 20
110.1314126927
 10
188.9073529
 20
110.6507757788
 10
192.0587231124
 20
111.1075532314
 10
195.3388486708
 20
111.4989286924
 10
198.7275049741
 20
111.8224888289
 10
202.2038005943
 20
112.0762397249
 10
205.746301608
 20
112.2586155584
 10
209.3331685009
 20
112.3684930642
 10
212.9422870184
 20
112.4051944266
  0
ELLIPSE
  5
FC
330
1F
100
AcDbEntity
  8
0
  6
Continuous
370
    15
100
AcDbEllipse
 10
212.9422870184
 20
1101.2127227072
 30
0.0
 11
0.0
 21
1158.247969773506
 31
0.0
210
0.0
220
0.0
230
1.0
 40
0.0066839464
 41
2.586675297031767
 42
2.593940274669444
  0
LINE
  5
FD
330
1F
100
AcDbEntity
  8
0
  6
Continuous
370
    15
100
AcDbLine
 10
208.8634112569
 20
116.766825203
 30
0.0
 11
217.0211627799
 21
116.766825203
 31
0.0
  0
ELLIPSE
  5
FE
330
1F
100
AcDbEntity
  8
0
  6
Continuous
370
    15
100
AcDbEllipse
 10
212.9422870184
 20
1101.2127227072
 30
0.0
 11
0.0
 21
1158.247969773506
 31
0.0
210
0.0
220
0.0
230
1.0
 40
0.0066839464
 41
3.689245032511713
 42
3.696510010149377
  0
ARC
  5
FF
330
1F
100
AcDbEntity
  8
0
  6
Continuous
370
    15
100
AcDbCircle
 10
212.8853839909
 20
-35.9852260147
 30
0.0
 40
152.8049914626002
100
AcDbArc
 50
91.5082536058
 51
91.7436735846
  0
LINE
  5
100
330
1F
100
AcDbEntity
  8
0
  6
Continuous
370
    15
100
AcDbLine
 10
188.7526658083
 20
125.6790963956
 30
0.0
 11
188.3375157321
 21
110.5266633413
 31
0.0
  0
ARC
  5
101
330
1F
100
AcDbEntity
  8
0
  6
Continuous
370
    15
100
AcDbCircle
 10
210.0428244609
 20
13.0246594514
 30
0.0
 40
114.6485630902399
100
AcDbArc
 50
93.4846052634
 51
100.7019062102
  0
SPLINE
  5
102
330
1F
100
AcDbEntity
  8
0
  6
Continuous
370
    15
100
AcDbSpline
210
0.0
220
0.0
230
1.0
 70
     8
 71
     3
 72
    12
 73
     8
 74
     0
 42
0.000000001
 43
0.00000001
 40
0.0
 40
0.0
 40
0.0
 40
0.0
 40
0.2272492467078678
 40
0.4545034846962607
 40
0.6816771076523821
 40
0.908766958060771
 40
1.0
 40
1.0
 40
1.0
 40
1.0
 10
204.046630924433
 20
128.3993273259181
 30
0.0
 10
204.0259415830254
 20
128.2913985616323
 30
0.0
 10
203.9845624457915
 20
128.075538662524
 30
0.0
 10
203.7908056003443
 20
127.7915662374758
 30
0.0
 10
203.5250257795859
 20
127.5796132918569
 30
0.0
 10
203.270007816017
 20
127.482018757515
 30
0.0
 10
203.1180085197467
 20
127.4658813770158
 30
0.0
 10
203.0744447092111
 20
127.4612563175329
 30
0.0
  0
ELLIPSE
  5
103
330
1F
100
AcDbEntity
  8
0
  6
Continuous
370
    15
100
AcDbEllipse
 10
204.8199768508
 20
32.5223951939
 30
0.0
 11
40.52764639049221
 21
461.8670129219728
 31
0.0
210
0.0
220
0.0
230
1.0
 40
0.0201694975
 41
1.351307263717118
 42
1.36346035044447
  0
SPLINE
  5
104
330
1F
100
AcDbEntity
  8
0
  6
Continuous
370
    15
100
AcDbSpline
210
0.0
220
0.0
230
1.0
 70
     8
 71
     3
 72
    12
 73
     8
 74
     0
 42
0.000000001
 43
0.00000001
 40
0.0
 40
0.0
 40
0.0
 40
0.0
 40
0.2273754513628284
 40
0.4547526358490448
 40
0.6821092926597156
 40
0.9094570022169031
 40
1.0
 40
1.0
 40
1.0
 40
1.0
 10
205.5318738984461
 20
134.8116316940566
 30
0.0
 10
205.4213690235221
 20
134.7955311326665
 30
0.0
 10
205.2003584313728
 20
134.763329887163
 30
0.0
 10
204.9060508548278
 20
134.5821148308631
 30
0.0
 10
204.6833806678572
 20
134.3260740121161
 30
0.0
 10
204.577835627497
 20
134.0762860660174
 30
0.0
 10
204.5577027490493
 20
133.9258182831599
 30
0.0
 10
204.5519684160645
 20
133.8829614024298
 30
0.0
  0
ARC
  5
105
330
1F
100
AcDbEntity
  8
0
  6
Continuous
370
    15
100
AcDbCircle
 10
212.7670587344
 20
-13.3733617769
 30
0.0
 40
148.3615185605564
100
AcDbArc
 50
92.2574205302
 51
92.79526692919998
  0
SPLINE
  5
106
330
1F
100
AcDbEntity
  8
0
  6
Continuous
370
    15
100
AcDbSpline
210
0.0
220
0.0
230
1.0
 70
     8
 71
     3
 72
    12
 73
     8
 74
     0
 42
0.000000001
 43
0.00000001
 40
0.0
 40
0.0
 40
0.0
 40
0.0
 40
0.2149442504569328
 40
0.429853691632094
 40
0.6457209820553828
 40
0.8634116521096292
 40
1.0
 40
1.0
 40
1.0
 40
1.0
 10
207.9230609069164
 20
133.964514883557
 30
0.0
 10
207.9101422508757
 20
134.0714876730399
 30
0.0
 10
207.884307030914
 20
134.28541592823
 30
0.0
 10
207.7084879797974
 20
134.5633645808194
 30
0.0
 10
207.4531899030424
 20
134.7676865504961
 30
0.0
 10
207.1751522844272
 20
134.8676658866699
 30
0.0
 10
206.9933174275303
 20
134.8715300394757
 30
0.0
 10
206.9232130142446
 20
134.8730198207526
 30
0.0
  0
LWPOLYLINE
  5
107
330
1F
100
AcDbEntity
  8
0
  6
Continuous
370
    15
100
AcDbPolyline
 90
        3
 70
   128
 43
0.0
 10
207.9230609069
 20
133.9645148836
 10
208.0709544661
 20
125.8237325643
 10
208.2358111347
 20
116.7490101216
  0
SPLINE
  5
108
330
1F
100
AcDbEntity
  8
0
  6
Continuous
370
    15
100
AcDbSpline
210
0.0
220
0.0
230
1.0
 70
     8
 71
     3
 72
    12
 73
     8
 74
     0
 42
0.000000001
 43
0.00000001
 40
0.0
 40
0.0
 40
0.0
 40
0.0
 40
0.2014033926168433
 40
0.402702862635498
 40
0.6071218531614669
 40
0.8201194821030618
 40
1.0
 40
1.0
 40
1.0
 40
1.0
 10
251.1806522215302
 20
121.474974913604
 30
0.0
 10
251.1794196394582
 20
121.3731515525624
 30
0.0
 10
251.1769551113169
 20
121.1695573705485
 30
0.0
 10
251.131915969126
 20
120.9307059644348
 30
0.0
 10
251.0600178481886
 20
120.7740993873665
 30
0.0
 10
250.9692697105714
 20
120.7150981927472
 30
0.0
 10
250.9017236540089
 20
120.7512963660865
 30
0.0
 10
250.8707974756654
 20
120.7678698156907
 30
0.0
  0
LWPOLYLINE
  5
109
330
1F
100
AcDbEntity
  8
0
  6
Continuous
370
    15
100
AcDbPolyline
 90
        3
 70
   128
 43
0.0
 10
250.713884523
 20
146.106083923
 10
251.0720153058
 20
127.2101432426
 10
251.1806522215
 20
121.4749749136
  0
SPLINE
  5
10A
330
1F
100
AcDbEntity
  8
0
  6
Continuous
370
    15
100
AcDbSpline
210
0.0
220
0.0
230
1.0
 70
     8
 71
     3
 72
    12
 73
     8
 74
     0
 42
0.000000001
 43
0.00000001
 40
0.0
 40
0.0
 40
0.0
 40
0.0
 40
0.2262067141693773
 40
0.4525570026771064
 40
0.6743464424575696
 40
0.8865054174520124
 40
1.0
 40
1.0
 40
1.0
 40
1.0
 10
250.9989586378034
 20
146.8131899204762
 30
0.0
 10
250.9652767294915
 20
146.8318794962606
 30
0.0
 10
250.8978915348212
 20
146.8692705101803
 30
0.0
 10
250.8075303782484
 20
146.7712433386748
 30
0.0
 10
250.7422062792345
 20
146.5704718214029
 30
0.0
 10
250.7136517238474
 20
146.3286352554744
 30
0.0
 10
250.713824357787
 20
146.1636006656672
 30
0.0
 10
250.7138845230039
 20
146.1060839229744
 30
0.0
  0
ARC
  5
10B
330
1F
100
AcDbEntity
  8
0
  6
Continuous
370
    15
100
AcDbCircle
 10
246.164574552
 20
141.403982711
 30
0.0
 40
7.25470827286765
100
AcDbArc
 50
44.5087618799
 51
48.2118065975
  0
LINE
  5
10C
330
1F
100
AcDbEntity
  8
0
  6
Continuous
370
    15
100
AcDbLine
 10
251.9322481657
 20
114.6141158859
 30
0.0
 11
251.3382208253
 21
146.4896661816
 31
0.0
  0
ARC
  5
10D
330
1F
100
AcDbEntity
  8
0
  6
Continuous
370
    15
100
AcDbCircle
 10
247.892198504
 20
110.6825427434
 30
0.0
 40
5.637310408725836
100
AcDbArc
 50
36.1827089739
 51
44.2203766683
  0
LINE
  5
10E
330
1F
100
AcDbEntity
  8
0
  6
Continuous
370
    15
100
AcDbLine
 10
252.5783923174
 20
106.4820528272
 30
0.0
 11
252.4422888363
 21
114.0105972219
 31
0.0
  0
ARC
  5
10F
330
1F
100
AcDbEntity
  8
0
  6
Continuous
370
    15
100
AcDbCircle
 10
212.9991900459
 20
-35.9852260147
 30
0.0
 40
152.8049914626002
100
AcDbArc
 50
88.2563264154
 51
88.4917463942
  0
LINE
  5
110
330
1F
100
AcDbEntity
  8
0
  6
Continuous
370
    15
100
AcDbLine
 10
217.9615131299
 20
133.9645148836
 30
0.0
 11
217.6487629021
 21
116.7490101216
 31
0.0
  0
SPLINE
  5
111
330
1F
100
AcDbEntity
  8
0
  6
Continuous
370
    15
100
AcDbSpline
210
0.0
220
0.0
230
1.0
 70
     8
 71
     3
 72
    12
 73
     8
 74
     0
 42
0.000000001
 43
0.00000001
 40
0.0
 40
0.0
 40
0.0
 40
0.0
 40
0.2200977367242608
 40
0.4402360458059559
 40
0.6592312050793925
 40
0.876268814219874
 40
1.0
 40
1.0
 40
1.0
 40
1.0
 10
218.9613610225315
 20
134.8730198207526
 30
0.0
 10
218.8480119742581
 20
134.8666208403564
 30
0.0
 10
218.6212929831841
 20
134.8538216999893
 30
0.0
 10
218.3194197730283
 20
134.6960060098455
 30
0.0
 10
218.0932334542176
 20
134.4559820185401
 30
0.0
 10
217.9796317356165
 20
134.1953167887308
 30
0.0
 10
217.9663394736016
 20
134.0259947427475
 30
0.0
 10
217.9615131298597
 20
133.964514883557
 30
0.0
  0
ARC
  5
112
330
1F
100
AcDbEntity
  8
0
  6
Continuous
370
    15
100
AcDbCircle
 10
213.1175153024
 20
-13.3733617769
 30
0.0
 40
148.3615185605564
100
AcDbArc
 50
87.20473307079999
 51
87.7425794698
  0
SPLINE
  5
113
330
1F
100
AcDbEntity
  8
0
  6
Continuous
370
    15
100
AcDbSpline
210
0.0
220
0.0
230
1.0
 70
     8
 71
     3
 72
    12
 73
     8
 74
     0
 42
0.000000001
 43
0.00000001
 40
0.0
 40
0.0
 40
0.0
 40
0.0
 40
0.2273508678057109
 40
0.4547017390378193
 40
0.6820509366827372
 40
0.9094016426437693
 40
1.0
 40
1.0
 40
1.0
 40
1.0
 10
221.3326056207116
 20
133.8829614024298
 30
0.0
 10
221.3118521367902
 20
133.9908710879212
 30
0.0
 10
221.2703451686346
 20
134.2066904605304
 30
0.0
 10
221.0756826991097
 20
134.4898121170989
 30
0.0
 10
220.8078936623986
 20
134.6996711976527
 30
0.0
 10
220.5503788590562
 20
134.7940151455633
 30
0.0
 10
220.39653683017
 20
134.807725096499
 30
0.0
 10
220.35270013833
 20
134.8116316940566
 30
0.0
  0
ELLIPSE
  5
114
330
1F
100
AcDbEntity
  8
0
  6
Continuous
370
    15
100
AcDbEllipse
 10
221.064597186
 20
32.5223951939
 30
0.0
 11
-40.52764639049221
 21
461.8670129219728
 31
0.0
210
0.0
220
0.0
230
1.0
 40
0.0201694975
 41
4.919724956735147
 42
4.931878043462502
  0
SPLINE
  5
115
330
1F
100
AcDbEntity
  8
0
  6
Continuous
370
    15
100
AcDbSpline
210
0.0
220
0.0
230
1.0
 70
     8
 71
     3
 72
    12
 73
     8
 74
     0
 42
0.000000001
 43
0.00000001
 40
0.0
 40
0.0
 40
0.0
 40
0.0
 40
0.2272127824358094
 40
0.4544337959552432
 40
0.6815293537099074
 40
0.9086535098379773
 40
1.0
 40
1.0
 40
1.0
 40
1.0
 10
222.810129327565
 20
127.4612563175329
 30
0.0
 10
222.7010753008594
 20
127.4789496121196
 30
0.0
 10
222.4829632968217
 20
127.5143368422561
 30
0.0
 10
222.1910224092636
 20
127.6979832922589
 30
0.0
 10
221.9694777914857
 20
127.9550281848262
 30
0.0
 10
221.8638993796688
 20
128.2052576530363
 30
0.0
 10
221.8437286535199
 20
128.3560700243369
 30
0.0
 10
221.8379431123431
 20
128.3993273259181
 30
0.0
  0
LWPOLYLINE
  5
116
330
1F
100
AcDbEntity
  8
0
  6
Continuous
370
    15
100
AcDbPolyline
 90
       12
 70
   128
 43
0.0
 10
222.8101293276
 20
127.4612563175
 10
226.2696052621
 20
127.1903970812
 10
229.620782351
 20
126.8400058528
 10
232.8364287222
 20
126.4129317726
 10
235.890416121
 20
125.9126449102
 10
238.7579248006
 20
125.3432092679
 10
241.4156567956
 20
124.709253855
 10
243.8420128728
 20
124.015928818
 10
246.0172769333
 20
123.2688692841
 10
247.9237687493
 20
122.4741447415
 10
249.5460060144
 20
121.6382142059
 10
250.8707974757
 20
120.7678698157
  0
SPLINE
  5
117
330
1F
100
AcDbEntity
  8
0
  6
Continuous
370
    15
100
AcDbSpline
210
0.0
220
0.0
230
1.0
 70
     8
 71
     3
 72
    13
 73
     9
 74
     0
 42
0.000000001
 43
0.00000001
 40
0.0
 40
0.0
 40
0.0
 40
0.0
 40
0.1135575306211021
 40
0.3020795484065552
 40
0.490619385051714
 40
0.6790244864703536
 40
0.8671931378740904
 40
1.0
 40
1.0
 40
1.0
 40
1.0
 10
191.9140179360803
 20
106.0068147897709
 30
0.0
 10
191.9307006179245
 20
105.9935559939379
 30
0.0
 10
191.9750789781279
 20
105.958285668529
 30
0.0
 10
192.0491392489626
 20
105.946150220824
 30
0.0
 10
192.1255555149845
 20
105.9864435280291
 30
0.0
 10
192.1844093760997
 20
106.0799293236819
 30
0.0
 10
192.2174333190291
 20
106.2011839974374
 30
0.0
 10
192.2216429086664
 20
106.2916126477561
 30
0.0
 10
192.223384668916
 20
106.3290284155916
 30
0.0
  0
ARC
  5
118
330
1F
100
AcDbEntity
  8
0
  6
Continuous
370
    15
100
AcDbCircle
 10
248.0975544756
 20
98.0836156123
 30
0.0
 40
2.854827447998141
100
AcDbArc
 50
332.4622337133
 51
36.10440552669999
  0
LINE
  5
119
330
1F
100
AcDbEntity
  8
0
  6
Continuous
370
    15
100
AcDbLine
 10
174.918800285
 20
97.955825132
 30
0.0
 11
174.9163676704
 21
98.122306568
 31
0.0
  0
LINE
  5
11A
330
1F
100
AcDbEntity
  8
0
  6
Continuous
370
    15
100
AcDbLine
 10
192.2233846689
 20
106.3290284156
 30
0.0
 11
192.2304534073
 21
107.107030425
 31
0.0
  0
LINE
  5
11B
330
1F
100
AcDbEntity
  8
0
  6
Continuous
370
    15
100
AcDbLine
 10
250.8506436552
 20
98.8509508515
 30
0.0
 11
250.6058697308
 21
98.2277868588
 31
0.0
  0
LINE
  5
11C
330
1F
100
AcDbEntity
  8
0
  6
Continuous
370
    15
100
AcDbLine
 10
175.1422879005
 20
98.5258603265
 30
0.0
 11
175.0259321834
 21
98.8813892274
 31
0.0
  0
LWPOLYLINE
  5
11D
330
1F
100
AcDbEntity
  8
0
  6
Continuous
370
    15
100
AcDbPolyline
 90
        3
 70
   128
 43
0.0
 10
250.48619478
 20
99.002219894
 10
250.4831959213
 20
98.9882121632
 10
250.4223619307
 20
98.7569607378
  0
LINE
  5
11E
330
1F
100
AcDbEntity
  8
0
  6
Continuous
370
    15
100
AcDbLine
 10
181.1931912507
 20
123.6053527547
 30
0.0
 11
181.1931912507
 21
117.9576053174
 31
0.0
  0
LINE
  5
11F
330
1F
100
AcDbEntity
  8
0
  6
Continuous
370
    15
100
AcDbLine
 10
188.7494303937
 20
125.5610513542
 30
0.0
 11
188.6216771508
 21
125.5279858998
 31
0.0
  0
LINE
  5
120
330
1F
100
AcDbEntity
  8
0
  6
Continuous
370
    15
100
AcDbLine
 10
181.2658381368
 20
123.6241556344
 30
0.0
 11
181.1931912507
 21
123.6053527547
 31
0.0
  0
SPLINE
  5
121
330
1F
100
AcDbEntity
  8
0
  6
Continuous
370
    15
100
AcDbSpline
210
0.0
220
0.0
230
1.0
 70
     8
 71
     3
 72
    12
 73
     8
 74
     0
 42
0.000000001
 43
0.00000001
 40
0.0
 40
0.0
 40
0.0
 40
0.0
 40
0.2289401388629018
 40
0.458160119383471
 40
0.6795041660441425
 40
0.8896652153069121
 40
1.0
 40
1.0
 40
1.0
 40
1.0
 10
175.0137765611108
 20
120.7678698156907
 30
0.0
 10
174.9744568911157
 20
120.7491052862128
 30
0.0
 10
174.8957694892972
 20
120.7115532907067
 30
0.0
 10
174.7980162897601
 20
120.8110555591979
 30
0.0
 10
174.7311397493334
 20
121.0143823675924
 30
0.0
 10
174.7035603880402
 20
121.255664449348
 30
0.0
 10
174.7038292545244
 20
121.4188099805486
 30
0.0
 10
174.7039218152459
 20
121.474974913604
 30
0.0
  0
LINE
  5
122
330
1F
100
AcDbEntity
  8
0
  6
Continuous
370
    15
100
AcDbLine
 10
180.966764381
 20
123.6639568229
 30
0.0
 11
180.9397523011
 21
109.0027470822
 31
0.0
  0
LINE
  5
123
330
1F
100
AcDbEntity
  8
0
  6
Continuous
370
    15
100
AcDbLine
 10
173.3061370159
 20
106.4795566541
 30
0.0
 11
173.4422852004
 21
114.0105972219
 31
0.0
  0
ARC
  5
124
330
1F
100
AcDbEntity
  8
0
  6
Continuous
370
    15
100
AcDbCircle
 10
177.9923755327
 20
110.6825427434
 30
0.0
 40
5.63731040872579
100
AcDbArc
 50
135.7796233317
 51
143.8172910261
  0
LINE
  5
125
330
1F
100
AcDbEntity
  8
0
  6
Continuous
370
    15
100
AcDbLine
 10
174.5250855292
 20
145.3486002062
 30
0.0
 11
173.9523258711
 21
114.6141158859
 31
0.0
  0
LWPOLYLINE
  5
126
330
1F
100
AcDbEntity
  8
0
  6
Continuous
370
    15
100
AcDbPolyline
 90
        3
 70
   128
 43
0.0
 10
175.1454543973
 20
144.7747135929
 10
174.8125587309
 20
127.2101432426
 10
174.7039218152
 20
121.4749749136
  0
ARC
  5
127
330
1F
100
AcDbEntity
  8
0
  6
Continuous
370
    15
100
AcDbCircle
 10
187.4288314579
 20
102.8146873023
 30
0.0
 40
21.82774267876221
100
AcDbArc
 50
107.2204113201
 51
124.6647848249
  0
LINE
  5
128
330
1F
100
AcDbEntity
  8
0
  6
Continuous
370
    15
100
AcDbLine
 10
180.966764381
 20
123.6639568229
 30
0.0
 11
181.1931912507
 21
123.6053527547
 31
0.0
  0
SPLINE
  5
129
330
1F
100
AcDbEntity
  8
0
  6
Continuous
370
    15
100
AcDbSpline
210
0.0
220
0.0
230
1.0
 70
     8
 71
     3
 72
    12
 73
     8
 74
     0
 42
0.000000001
 43
0.00000001
 40
0.0
 40
0.0
 40
0.0
 40
0.0
 40
0.1926028374927414
 40
0.3852534487787289
 40
0.5770113859730379
 40
0.7744485705540117
 40
1.0
 40
1.0
 40
1.0
 40
1.0
 10
249.3443970287736
 20
146.8431830240532
 30
0.0
 10
249.3750437509803
 20
146.8442277983044
 30
0.0
 10
249.4363447970999
 20
146.8463176059559
 30
0.0
 10
249.5064148548702
 20
146.8482547140958
 30
0.0
 10
249.5501894733547
 20
146.8428435647646
 30
0.0
 10
249.5668120304616
 20
146.8269771131717
 30
0.0
 10
249.5528751162565
 20
146.8066684629893
 30
0.0
 10
249.545443495601
 20
146.7958392233199
 30
0.0
  0
ELLIPSE
  5
12A
330
1F
100
AcDbEntity
  8
0
  6
Continuous
370
    15
100
AcDbEllipse
 10
248.6783914069
 20
145.8472645328
 30
0.0
 11
3.53358894574842
 21
0.2981216367987259
 31
0.0
210
0.0
220
0.0
230
1.0
 40
0.2701298603
 41
1.358447333560317
 42
1.457148657817902
  0
SPLINE
  5
12B
330
1F
100
AcDbEntity
  8
0
  6
Continuous
370
    15
100
AcDbSpline
210
0.0
220
0.0
230
1.0
 70
     8
 71
     3
 72
     9
 73
     5
 74
     0
 42
0.000000001
 43
0.00000001
 40
0.0
 40
0.0
 40
0.0
 40
0.0
 40
0.685827223522805
 40
1.0
 40
1.0
 40
1.0
 40
1.0
 10
248.8726895953114
 20
146.8131899204762
 30
0.0
 10
248.8991178109909
 20
146.8182845141966
 30
0.0
 10
248.9376526121375
 20
146.8257129065754
 30
0.0
 10
248.9844099791835
 20
146.828550823318
 30
0.0
 10
248.9990998710092
 20
146.8294424195004
 30
0.0
  0
SPLINE
  5
12C
330
1F
100
AcDbEntity
  8
0
  6
Continuous
370
    15
100
AcDbSpline
210
0.0
220
0.0
230
1.0
 70
     8
 71
     3
 72
    11
 73
     7
 74
     0
 42
0.000000001
 43
0.00000001
 40
0.0
 40
0.0
 40
0.0
 40
0.0
 40
0.0517818932105179
 40
0.4744724588056928
 40
0.8970880001226125
 40
0.9999999999999999
 40
0.9999999999999999
 40
0.9999999999999999
 40
0.9999999999999999
 10
248.7827014828618
 20
146.7577951122797
 30
0.0
 10
248.7821350256711
 20
146.7588515291763
 30
0.0
 10
248.7769446334429
 20
146.7685313746079
 30
0.0
 10
248.7997572726312
 20
146.7869855500574
 30
0.0
 10
248.8375259390163
 20
146.80398769923
 30
0.0
 10
248.8669312654232
 20
146.8116829831659
 30
0.0
 10
248.8726895953114
 20
146.8131899204762
 30
0.0
  0
LWPOLYLINE
  5
12D
330
1F
100
AcDbEntity
  8
0
  6
Continuous
370
    15
100
AcDbPolyline
 90
        3
 70
   128
 43
0.0
 10
176.9596297944
 20
121.9155070138
 10
176.8609468544
 20
127.096712326
 10
176.5491698588
 20
143.4761755453
  0
LWPOLYLINE
  5
12E
330
1F
100
AcDbEntity
  8
0
  6
Continuous
370
    15
100
AcDbPolyline
 90
        3
 70
   128
 43
0.0
 10
248.9251789356
 20
121.9279897042
 10
249.0236271823
 20
127.096712326
 10
249.385464629
 20
146.106083923
  0
LINE
  5
12F
330
1F
100
AcDbEntity
  8
0
  6
Continuous
370
    15
100
AcDbLine
 10
173.9523258711
 20
114.6141158859
 30
0.0
 11
173.4422852004
 21
114.6141158859
 31
0.0
  0
ARC
  5
130
330
1F
100
AcDbEntity
  8
0
  6
Continuous
370
    15
100
AcDbCircle
 10
173.4397864572
 20
114.7111389372
 30
0.0
 40
0.0970552224157375
100
AcDbArc
 50
158.7657156479
 51
271.4752762042
  0
LINE
  5
131
330
1F
100
AcDbEntity
  8
0
  6
Continuous
370
    15
100
AcDbLine
 10
173.8352548982
 20
115.9308256218
 30
0.0
 11
173.349320581
 21
114.7462906291
 31
0.0
  0
ARC
  5
132
330
1F
100
AcDbEntity
  8
0
  6
Continuous
370
    15
100
AcDbCircle
 10
173.7447832283
 20
115.9659759505
 30
0.0
 40
0.0970601290403385
100
AcDbArc
 50
338.7677043736999
 51
91.47398024649999
  0
LINE
  5
133
330
1F
100
AcDbEntity
  8
0
  6
Continuous
370
    15
100
AcDbLine
 10
173.4422852004
 20
116.0630039633
 30
0.0
 11
173.7422865535
 21
116.0630039633
 31
0.0
  0
ARC
  5
134
330
1F
100
AcDbEntity
  8
0
  6
Continuous
370
    15
100
AcDbCircle
 10
173.4397864572
 20
116.1600270146
 30
0.0
 40
0.0970552224157284
100
AcDbArc
 50
158.7657156479
 51
271.4752762042
  0
LINE
  5
135
330
1F
100
AcDbEntity
  8
0
  6
Continuous
370
    15
100
AcDbLine
 10
173.8352548982
 20
117.3797172975
 30
0.0
 11
173.349320581
 21
116.1951787064
 31
0.0
  0
ARC
  5
136
330
1F
100
AcDbEntity
  8
0
  6
Continuous
370
    15
100
AcDbCircle
 10
173.7447855332
 20
117.4148666059
 30
0.0
 40
0.0970576111458499
100
AcDbArc
 50
338.767773047
 51
91.4753795606
  0
LINE
  5
137
330
1F
100
AcDbEntity
  8
0
  6
Continuous
370
    15
100
AcDbLine
 10
173.4422852004
 20
117.5118920406
 30
0.0
 11
173.7422865535
 21
117.5118920406
 31
0.0
  0
ARC
  5
138
330
1F
100
AcDbEntity
  8
0
  6
Continuous
370
    15
100
AcDbCircle
 10
173.4397864572
 20
117.6089150919
 30
0.0
 40
0.0970552224156822
100
AcDbArc
 50
158.7657156479
 51
271.4752762042999
  0
LINE
  5
139
330
1F
100
AcDbEntity
  8
0
  6
Continuous
370
    15
100
AcDbLine
 10
173.8352548982
 20
118.8286053748
 30
0.0
 11
173.349320581
 21
117.6440667838
 31
0.0
  0
ARC
  5
13A
330
1F
100
AcDbEntity
  8
0
  6
Continuous
370
    15
100
AcDbCircle
 10
173.7447858475
 20
118.8637549043
 30
0.0
 40
0.0970573982274373
100
AcDbArc
 50
338.7675841956
 51
91.47556841200002
  0
LINE
  5
13B
330
1F
100
AcDbEntity
  8
0
  6
Continuous
370
    15
100
AcDbLine
 10
173.4422852004
 20
118.960780118
 30
0.0
 11
173.7422865535
 21
118.960780118
 31
0.0
  0
ARC
  5
13C
330
1F
100
AcDbEntity
  8
0
  6
Continuous
370
    15
100
AcDbCircle
 10
173.4397867714
 20
119.0578033902
 30
0.0
 40
0.0970554351792911
100
AcDbArc
 50
158.7659043718
 51
271.4750874803
  0
LINE
  5
13D
330
1F
100
AcDbEntity
  8
0
  6
Continuous
370
    15
100
AcDbLine
 10
173.8352548982
 20
120.2774934521
 30
0.0
 11
173.349320581
 21
119.0929548611
 31
0.0
  0
ARC
  5
13E
330
1F
100
AcDbEntity
  8
0
  6
Continuous
370
    15
100
AcDbCircle
 10
173.7447858475
 20
120.3126429817
 30
0.0
 40
0.097057398227406
100
AcDbArc
 50
338.7675841956
 51
91.47556841200002
  0
LINE
  5
13F
330
1F
100
AcDbEntity
  8
0
  6
Continuous
370
    15
100
AcDbLine
 10
173.4422852004
 20
120.4096681953
 30
0.0
 11
173.7422865535
 21
120.4096681953
 31
0.0
  0
ARC
  5
140
330
1F
100
AcDbEntity
  8
0
  6
Continuous
370
    15
100
AcDbCircle
 10
173.4397890764
 20
120.5066940457
 30
0.0
 40
0.0970579531904087
100
AcDbArc
 50
158.7658358401
 51
271.4736880444
  0
LINE
  5
141
330
1F
100
AcDbEntity
  8
0
  6
Continuous
370
    15
100
AcDbLine
 10
173.8352548982
 20
121.7263815295
 30
0.0
 11
173.349320581
 21
120.5418465368
 31
0.0
  0
ARC
  5
142
330
1F
100
AcDbEntity
  8
0
  6
Continuous
370
    15
100
AcDbCircle
 10
173.7447858475
 20
121.761531059
 30
0.0
 40
0.0970573982274211
100
AcDbArc
 50
338.7675841956
 51
91.47556841200002
  0
LINE
  5
143
330
1F
100
AcDbEntity
  8
0
  6
Continuous
370
    15
100
AcDbLine
 10
173.4422852004
 20
121.8585562726
 30
0.0
 11
173.7422865535
 21
121.8585562726
 31
0.0
  0
ARC
  5
144
330
1F
100
AcDbEntity
  8
0
  6
Continuous
370
    15
100
AcDbCircle
 10
173.439791749
 20
121.9555840028
 30
0.0
 40
0.0970597636206643
100
AcDbArc
 50
158.767441561
 51
271.4720823235
  0
LINE
  5
145
330
1F
100
AcDbEntity
  8
0
  6
Continuous
370
    15
100
AcDbLine
 10
173.8352548982
 20
123.1752696068
 30
0.0
 11
173.349320581
 21
121.9907346141
 31
0.0
  0
ARC
  5
146
330
1F
100
AcDbEntity
  8
0
  6
Continuous
370
    15
100
AcDbCircle
 10
173.7447832283
 20
123.2104199355
 30
0.0
 40
0.0970601290403662
100
AcDbArc
 50
338.7677043736999
 51
91.47398024649999
  0
LINE
  5
147
330
1F
100
AcDbEntity
  8
0
  6
Continuous
370
    15
100
AcDbLine
 10
173.4422852004
 20
123.3074479483
 30
0.0
 11
173.7422865535
 21
123.3074479483
 31
0.0
  0
ARC
  5
148
330
1F
100
AcDbEntity
  8
0
  6
Continuous
370
    15
100
AcDbCircle
 10
173.4397864572
 20
123.4044709996
 30
0.0
 40
0.0970552224157181
100
AcDbArc
 50
158.7657156479
 51
271.4752762042
  0
LINE
  5
149
330
1F
100
AcDbEntity
  8
0
  6
Continuous
370
    15
100
AcDbLine
 10
173.8352548982
 20
124.6241612825
 30
0.0
 11
173.349320581
 21
123.4396226915
 31
0.0
  0
ARC
  5
14A
330
1F
100
AcDbEntity
  8
0
  6
Continuous
370
    15
100
AcDbCircle
 10
173.7447855332
 20
124.6593105909
 30
0.0
 40
0.0970576111458372
100
AcDbArc
 50
338.767773047
 51
91.4753795606
  0
LINE
  5
14B
330
1F
100
AcDbEntity
  8
0
  6
Continuous
370
    15
100
AcDbLine
 10
173.4422852004
 20
124.7563360257
 30
0.0
 11
173.7422865535
 21
124.7563360257
 31
0.0
  0
ARC
  5
14C
330
1F
100
AcDbEntity
  8
0
  6
Continuous
370
    15
100
AcDbCircle
 10
173.4397864572
 20
124.8533590769
 30
0.0
 40
0.0970552224157284
100
AcDbArc
 50
158.7657156479
 51
271.4752762042
  0
LINE
  5
14D
330
1F
100
AcDbEntity
  8
0
  6
Continuous
370
    15
100
AcDbLine
 10
173.8352548982
 20
126.0730493598
 30
0.0
 11
173.349320581
 21
124.8885107688
 31
0.0
  0
ARC
  5
14E
330
1F
100
AcDbEntity
  8
0
  6
Continuous
370
    15
100
AcDbCircle
 10
173.7447858475
 20
126.1081988894
 30
0.0
 40
0.0970573982274202
100
AcDbArc
 50
338.7675841956
 51
91.47556841200002
  0
LINE
  5
14F
330
1F
100
AcDbEntity
  8
0
  6
Continuous
370
    15
100
AcDbLine
 10
173.4422852004
 20
126.205224103
 30
0.0
 11
173.7422865535
 21
126.205224103
 31
0.0
  0
ARC
  5
150
330
1F
100
AcDbEntity
  8
0
  6
Continuous
370
    15
100
AcDbCircle
 10
173.4397867714
 20
126.3022473752
 30
0.0
 40
0.0970554351793169
100
AcDbArc
 50
158.7659043718
 51
271.4750874803
  0
LINE
  5
151
330
1F
100
AcDbEntity
  8
0
  6
Continuous
370
    15
100
AcDbLine
 10
173.8352548982
 20
127.5219374372
 30
0.0
 11
173.349320581
 21
126.3373988462
 31
0.0
  0
ARC
  5
152
330
1F
100
AcDbEntity
  8
0
  6
Continuous
370
    15
100
AcDbCircle
 10
173.7447858475
 20
127.5570869667
 30
0.0
 40
0.0970573982274159
100
AcDbArc
 50
338.7675841956
 51
91.47556841200002
  0
LINE
  5
153
330
1F
100
AcDbEntity
  8
0
  6
Continuous
370
    15
100
AcDbLine
 10
173.4422852004
 20
127.6541121803
 30
0.0
 11
173.7422865535
 21
127.6541121803
 31
0.0
  0
ARC
  5
154
330
1F
100
AcDbEntity
  8
0
  6
Continuous
370
    15
100
AcDbCircle
 10
173.4397890764
 20
127.7511380307
 30
0.0
 40
0.0970579531903684
100
AcDbArc
 50
158.7658358401
 51
271.4736880444
  0
LINE
  5
155
330
1F
100
AcDbEntity
  8
0
  6
Continuous
370
    15
100
AcDbLine
 10
173.8352548982
 20
128.9708255145
 30
0.0
 11
173.349320581
 21
127.7862905218
 31
0.0
  0
ARC
  5
156
330
1F
100
AcDbEntity
  8
0
  6
Continuous
370
    15
100
AcDbCircle
 10
173.7447845379
 20
129.0059754436
 30
0.0
 40
0.0970587636225693
100
AcDbArc
 50
338.7676442814
 51
91.4747743258
  0
LINE
  5
157
330
1F
100
AcDbEntity
  8
0
  6
Continuous
370
    15
100
AcDbLine
 10
173.4422852004
 20
129.1030020568
 30
0.0
 11
173.7422865535
 21
129.1030020568
 31
0.0
  0
ARC
  5
158
330
1F
100
AcDbEntity
  8
0
  6
Continuous
370
    15
100
AcDbCircle
 10
173.4397872334
 20
129.200025654
 30
0.0
 40
0.0970557481255282
100
AcDbArc
 50
158.7661819558
 51
271.4748098963
  0
LINE
  5
159
330
1F
100
AcDbEntity
  8
0
  6
Continuous
370
    15
100
AcDbLine
 10
173.8352548982
 20
130.419715391
 30
0.0
 11
173.349320581
 21
129.2351768
 31
0.0
  0
ARC
  5
15A
330
1F
100
AcDbEntity
  8
0
  6
Continuous
370
    15
100
AcDbCircle
 10
173.7447850713
 20
130.4548643746
 30
0.0
 40
0.0970579240089483
100
AcDbArc
 50
338.7680505428
 51
91.47510206479998
  0
LINE
  5
15B
330
1F
100
AcDbEntity
  8
0
  6
Continuous
370
    15
100
AcDbLine
 10
173.4422852004
 20
130.5518901342
 30
0.0
 11
173.7422865535
 21
130.5518901342
 31
0.0
  0
ARC
  5
15C
330
1F
100
AcDbEntity
  8
0
  6
Continuous
370
    15
100
AcDbCircle
 10
173.4397877668
 20
130.648914585
 30
0.0
 40
0.0970565877916806
100
AcDbArc
 50
158.7657757408
 51
271.4744821209
  0
LINE
  5
15D
330
1F
100
AcDbEntity
  8
0
  6
Continuous
370
    15
100
AcDbLine
 10
173.8352548982
 20
131.8686034684
 30
0.0
 11
173.349320581
 21
130.6840666765
 31
0.0
  0
ARC
  5
15E
330
1F
100
AcDbEntity
  8
0
  6
Continuous
370
    15
100
AcDbCircle
 10
173.7447845379
 20
131.9037533975
 30
0.0
 40
0.0970587636225416
100
AcDbArc
 50
338.7676442814
 51
91.4747743258
  0
LINE
  5
15F
330
1F
100
AcDbEntity
  8
0
  6
Continuous
370
    15
100
AcDbLine
 10
173.4422852004
 20
132.0007800107
 30
0.0
 11
173.7422865535
 21
132.0007800107
 31
0.0
  0
ARC
  5
160
330
1F
100
AcDbEntity
  8
0
  6
Continuous
370
    15
100
AcDbCircle
 10
173.4397866143
 20
132.0978031724
 30
0.0
 40
0.0970553288033148
100
AcDbArc
 50
158.7658100152
 51
271.4751818369
  0
LINE
  5
161
330
1F
100
AcDbEntity
  8
0
  6
Continuous
370
    15
100
AcDbLine
 10
173.8352548982
 20
133.3174915457
 30
0.0
 11
173.349320581
 21
132.1329547539
 31
0.0
  0
ARC
  5
162
330
1F
100
AcDbEntity
  8
0
  6
Continuous
370
    15
100
AcDbCircle
 10
173.7447845379
 20
133.3526414748
 30
0.0
 40
0.0970587636225556
100
AcDbArc
 50
338.7676442814
 51
91.4747743258
  0
LINE
  5
163
330
1F
100
AcDbEntity
  8
0
  6
Continuous
370
    15
100
AcDbLine
 10
173.4422852004
 20
133.449668088
 30
0.0
 11
173.7422865535
 21
133.449668088
 31
0.0
  0
ARC
  5
164
330
1F
100
AcDbEntity
  8
0
  6
Continuous
370
    15
100
AcDbCircle
 10
173.4397877668
 20
133.5466925389
 30
0.0
 40
0.0970565877917336
100
AcDbArc
 50
158.7657757408
 51
271.4744821208
  0
LINE
  5
165
330
1F
100
AcDbEntity
  8
0
  6
Continuous
370
    15
100
AcDbLine
 10
173.8352548982
 20
134.7663814222
 30
0.0
 11
173.349320581
 21
133.5818446304
 31
0.0
  0
ARC
  5
166
330
1F
100
AcDbEntity
  8
0
  6
Continuous
370
    15
100
AcDbCircle
 10
173.7447856903
 20
134.8015308412
 30
0.0
 40
0.09705750469245
100
AcDbArc
 50
338.7676786267
 51
91.4754739809
  0
LINE
  5
167
330
1F
100
AcDbEntity
  8
0
  6
Continuous
370
    15
100
AcDbLine
 10
173.4422852004
 20
134.8985561654
 30
0.0
 11
173.7422865535
 21
134.8985561654
 31
0.0
  0
ARC
  5
168
330
1F
100
AcDbEntity
  8
0
  6
Continuous
370
    15
100
AcDbCircle
 10
173.4397877668
 20
134.9955806162
 30
0.0
 40
0.0970565877917581
100
AcDbArc
 50
158.7657757408
 51
271.4744821209
  0
LINE
  5
169
330
1F
100
AcDbEntity
  8
0
  6
Continuous
370
    15
100
AcDbLine
 10
173.8352548982
 20
136.2152694995
 30
0.0
 11
173.349320581
 21
135.0307327077
 31
0.0
  0
ARC
  5
16A
330
1F
100
AcDbEntity
  8
0
  6
Continuous
370
    15
100
AcDbCircle
 10
173.7447845379
 20
136.2504194287
 30
0.0
 40
0.0970587636225394
100
AcDbArc
 50
338.7676442814
 51
91.4747743258
  0
LINE
  5
16B
330
1F
100
AcDbEntity
  8
0
  6
Continuous
370
    15
100
AcDbLine
 10
173.4422852004
 20
136.3474460419
 30
0.0
 11
173.7422865535
 21
136.3474460419
 31
0.0
  0
ARC
  5
16C
330
1F
100
AcDbEntity
  8
0
  6
Continuous
370
    15
100
AcDbCircle
 10
173.4397866143
 20
136.4444692036
 30
0.0
 40
0.0970553288033417
100
AcDbArc
 50
158.7658100152
 51
271.4751818369
  0
LINE
  5
16D
330
1F
100
AcDbEntity
  8
0
  6
Continuous
370
    15
100
AcDbLine
 10
173.8352548982
 20
137.6641575769
 30
0.0
 11
173.349320581
 21
136.479620785
 31
0.0
  0
ARC
  5
16E
330
1F
100
AcDbEntity
  8
0
  6
Continuous
370
    15
100
AcDbCircle
 10
173.7447845379
 20
137.699307506
 30
0.0
 40
0.0970587636225291
100
AcDbArc
 50
338.7676442814
 51
91.4747743258
  0
LINE
  5
16F
330
1F
100
AcDbEntity
  8
0
  6
Continuous
370
    15
100
AcDbLine
 10
173.4422852004
 20
137.7963341192
 30
0.0
 11
173.7422865535
 21
137.7963341192
 31
0.0
  0
ARC
  5
170
330
1F
100
AcDbEntity
  8
0
  6
Continuous
370
    15
100
AcDbCircle
 10
173.4397877668
 20
137.89335857
 30
0.0
 40
0.0970565877917574
100
AcDbArc
 50
158.7657757408
 51
271.4744821208
  0
LINE
  5
171
330
1F
100
AcDbEntity
  8
0
  6
Continuous
370
    15
100
AcDbLine
 10
173.8352548982
 20
139.1130474534
 30
0.0
 11
173.349320581
 21
137.9285106616
 31
0.0
  0
ARC
  5
172
330
1F
100
AcDbEntity
  8
0
  6
Continuous
370
    15
100
AcDbCircle
 10
173.7447856903
 20
139.1481968724
 30
0.0
 40
0.0970575046924231
100
AcDbArc
 50
338.7676786267
 51
91.475473981
  0
LINE
  5
173
330
1F
100
AcDbEntity
  8
0
  6
Continuous
370
    15
100
AcDbLine
 10
173.4422852004
 20
139.2452221966
 30
0.0
 11
173.7422865535
 21
139.2452221966
 31
0.0
  0
ARC
  5
174
330
1F
100
AcDbEntity
  8
0
  6
Continuous
370
    15
100
AcDbCircle
 10
173.4397877668
 20
139.3422466474
 30
0.0
 40
0.097056587791729
100
AcDbArc
 50
158.7657757408
 51
271.4744821208
  0
LINE
  5
175
330
1F
100
AcDbEntity
  8
0
  6
Continuous
370
    15
100
AcDbLine
 10
173.8352548982
 20
140.5619355307
 30
0.0
 11
173.349320581
 21
139.3773987389
 31
0.0
  0
ARC
  5
176
330
1F
100
AcDbEntity
  8
0
  6
Continuous
370
    15
100
AcDbCircle
 10
173.7447845379
 20
140.5970854599
 30
0.0
 40
0.0970587636225394
100
AcDbArc
 50
338.7676442814
 51
91.4747743258
  0
LINE
  5
177
330
1F
100
AcDbEntity
  8
0
  6
Continuous
370
    15
100
AcDbLine
 10
173.4422852004
 20
140.6941120731
 30
0.0
 11
173.7422865535
 21
140.6941120731
 31
0.0
  0
ARC
  5
178
330
1F
100
AcDbEntity
  8
0
  6
Continuous
370
    15
100
AcDbCircle
 10
173.4397866143
 20
140.7911352348
 30
0.0
 40
0.0970553288033385
100
AcDbArc
 50
158.7658100152
 51
271.4751818369
  0
LINE
  5
179
330
1F
100
AcDbEntity
  8
0
  6
Continuous
370
    15
100
AcDbLine
 10
173.8352548982
 20
142.0108236081
 30
0.0
 11
173.349320581
 21
140.8262868162
 31
0.0
  0
ARC
  5
17A
330
1F
100
AcDbEntity
  8
0
  6
Continuous
370
    15
100
AcDbCircle
 10
173.7447845379
 20
142.0459735372
 30
0.0
 40
0.0970587636225556
100
AcDbArc
 50
338.7676442814
 51
91.4747743258
  0
LINE
  5
17B
330
1F
100
AcDbEntity
  8
0
  6
Continuous
370
    15
100
AcDbLine
 10
173.4422852004
 20
142.1430001504
 30
0.0
 11
173.7422865535
 21
142.1430001504
 31
0.0
  0
ARC
  5
17C
330
1F
100
AcDbEntity
  8
0
  6
Continuous
370
    15
100
AcDbCircle
 10
173.4397877668
 20
142.2400246012
 30
0.0
 40
0.0970565877917574
100
AcDbArc
 50
158.7657757408
 51
271.4744821208
  0
LINE
  5
17D
330
1F
100
AcDbEntity
  8
0
  6
Continuous
370
    15
100
AcDbLine
 10
173.8352548982
 20
143.4597134846
 30
0.0
 11
173.349320581
 21
142.2751766927
 31
0.0
  0
ARC
  5
17E
330
1F
100
AcDbEntity
  8
0
  6
Continuous
370
    15
100
AcDbCircle
 10
173.7447856903
 20
143.4948629036
 30
0.0
 40
0.0970575046924181
100
AcDbArc
 50
338.7676786267
 51
91.4754739809
  0
LINE
  5
17F
330
1F
100
AcDbEntity
  8
0
  6
Continuous
370
    15
100
AcDbLine
 10
173.4422852004
 20
143.5918882277
 30
0.0
 11
173.7422865535
 21
143.5918882277
 31
0.0
  0
ARC
  5
180
330
1F
100
AcDbEntity
  8
0
  6
Continuous
370
    15
100
AcDbCircle
 10
173.4397892601
 20
143.6889137289
 30
0.0
 40
0.0970575993573497
100
AcDbArc
 50
158.7666729693
 51
271.4735848924
  0
LINE
  5
181
330
1F
100
AcDbEntity
  8
0
  6
Continuous
370
    15
100
AcDbLine
 10
173.8352548982
 20
144.9086015619
 30
0.0
 11
173.349320581
 21
143.7240647701
 31
0.0
  0
ARC
  5
182
330
1F
100
AcDbEntity
  8
0
  6
Continuous
370
    15
100
AcDbCircle
 10
173.7447845379
 20
144.9437514911
 30
0.0
 40
0.0970587636225394
100
AcDbArc
 50
338.7676442814
 51
91.4747743258
  0
LINE
  5
183
330
1F
100
AcDbEntity
  8
0
  6
Continuous
370
    15
100
AcDbLine
 10
173.4422852004
 20
145.0407781043
 30
0.0
 11
173.7422865535
 21
145.0407781043
 31
0.0
  0
ARC
  5
184
330
1F
100
AcDbEntity
  8
0
  6
Continuous
370
    15
100
AcDbCircle
 10
173.4397871905
 20
145.1378019105
 30
0.0
 40
0.0970559582960563
100
AcDbArc
 50
158.7657928777
 51
271.4748319775001
  0
LINE
  5
185
330
1F
100
AcDbEntity
  8
0
  6
Continuous
370
    15
100
AcDbLine
 10
173.7250049318
 20
146.0887375667
 30
0.0
 11
173.349320581
 21
145.172953747
 31
0.0
  0
LINE
  5
186
330
1F
100
AcDbEntity
  8
0
  6
Continuous
370
    15
100
AcDbLine
 10
251.9950975383
 20
146.4896661816
 30
0.0
 11
251.3382208253
 21
146.4896661816
 31
0.0
  0
LINE
  5
187
330
1F
100
AcDbEntity
  8
0
  6
Continuous
370
    15
100
AcDbLine
 10
251.9950975383
 20
146.4896661816
 30
0.0
 11
252.5352534557
 21
145.172953747
 31
0.0
  0
ARC
  5
188
330
1F
100
AcDbEntity
  8
0
  6
Continuous
370
    15
100
AcDbCircle
 10
252.4447868462
 20
145.1378019105
 30
0.0
 40
0.0970559582960828
100
AcDbArc
 50
268.5251680226
 51
21.2342071223
  0
LINE
  5
189
330
1F
100
AcDbEntity
  8
0
  6
Continuous
370
    15
100
AcDbLine
 10
252.4422888363
 20
145.0407781043
 30
0.0
 11
252.1422874833
 21
145.0407781043
 31
0.0
  0
ARC
  5
18A
330
1F
100
AcDbEntity
  8
0
  6
Continuous
370
    15
100
AcDbCircle
 10
252.1397894988
 20
144.9437514911
 30
0.0
 40
0.0970587636225659
100
AcDbArc
 50
88.5252256742
 51
201.2323557186
  0
LINE
  5
18B
330
1F
100
AcDbEntity
  8
0
  6
Continuous
370
    15
100
AcDbLine
 10
252.0493191386
 20
144.9086015619
 30
0.0
 11
252.5352534557
 21
143.7240647701
 31
0.0
  0
ARC
  5
18C
330
1F
100
AcDbEntity
  8
0
  6
Continuous
370
    15
100
AcDbCircle
 10
252.4447847766
 20
143.6889137289
 30
0.0
 40
0.0970575993573404
100
AcDbArc
 50
268.5264151076
 51
21.2333270307
  0
LINE
  5
18D
330
1F
100
AcDbEntity
  8
0
  6
Continuous
370
    15
100
AcDbLine
 10
252.4422888363
 20
143.5918882277
 30
0.0
 11
252.1422874833
 21
143.5918882277
 31
0.0
  0
ARC
  5
18E
330
1F
100
AcDbEntity
  8
0
  6
Continuous
370
    15
100
AcDbCircle
 10
252.1397883464
 20
143.4948629036
 30
0.0
 40
0.0970575046924181
100
AcDbArc
 50
88.5245260191
 51
201.2323213733
  0
LINE
  5
18F
330
1F
100
AcDbEntity
  8
0
  6
Continuous
370
    15
100
AcDbLine
 10
252.0493191386
 20
143.4597134846
 30
0.0
 11
252.5352534557
 21
142.2751766927
 31
0.0
  0
ARC
  5
190
330
1F
100
AcDbEntity
  8
0
  6
Continuous
370
    15
100
AcDbCircle
 10
252.44478627
 20
142.2400246012
 30
0.0
 40
0.097056587791813
100
AcDbArc
 50
268.5255178792
 51
21.2342242592
  0
LINE
  5
191
330
1F
100
AcDbEntity
  8
0
  6
Continuous
370
    15
100
AcDbLine
 10
252.4422888363
 20
142.1430001504
 30
0.0
 11
252.1422874833
 21
142.1430001504
 31
0.0
  0
ARC
  5
192
330
1F
100
AcDbEntity
  8
0
  6
Continuous
370
    15
100
AcDbCircle
 10
252.1397894988
 20
142.0459735372
 30
0.0
 40
0.0970587636225556
100
AcDbArc
 50
88.5252256742
 51
201.2323557186
  0
LINE
  5
193
330
1F
100
AcDbEntity
  8
0
  6
Continuous
370
    15
100
AcDbLine
 10
252.0493191386
 20
142.0108236081
 30
0.0
 11
252.5352534557
 21
140.8262868162
 31
0.0
  0
ARC
  5
194
330
1F
100
AcDbEntity
  8
0
  6
Continuous
370
    15
100
AcDbCircle
 10
252.4447874225
 20
140.7911352348
 30
0.0
 40
0.0970553288033148
100
AcDbArc
 50
268.5248181631
 51
21.2341899848
  0
LINE
  5
195
330
1F
100
AcDbEntity
  8
0
  6
Continuous
370
    15
100
AcDbLine
 10
252.4422888363
 20
140.6941120731
 30
0.0
 11
252.1422874833
 21
140.6941120731
 31
0.0
  0
ARC
  5
196
330
1F
100
AcDbEntity
  8
0
  6
Continuous
370
    15
100
AcDbCircle
 10
252.1397894988
 20
140.5970854599
 30
0.0
 40
0.097058763622514
100
AcDbArc
 50
88.5252256742
 51
201.2323557186
  0
LINE
  5
197
330
1F
100
AcDbEntity
  8
0
  6
Continuous
370
    15
100
AcDbLine
 10
252.0493191386
 20
140.5619355307
 30
0.0
 11
252.5352534557
 21
139.3773987389
 31
0.0
  0
ARC
  5
198
330
1F
100
AcDbEntity
  8
0
  6
Continuous
370
    15
100
AcDbCircle
 10
252.44478627
 20
139.3422466474
 30
0.0
 40
0.0970565877917297
100
AcDbArc
 50
268.5255178791
 51
21.2342242592
  0
LINE
  5
199
330
1F
100
AcDbEntity
  8
0
  6
Continuous
370
    15
100
AcDbLine
 10
252.4422888363
 20
139.2452221966
 30
0.0
 11
252.1422874833
 21
139.2452221966
 31
0.0
  0
ARC
  5
19A
330
1F
100
AcDbEntity
  8
0
  6
Continuous
370
    15
100
AcDbCircle
 10
252.1397883464
 20
139.1481968724
 30
0.0
 40
0.0970575046924238
100
AcDbArc
 50
88.524526019
 51
201.2323213733
  0
LINE
  5
19B
330
1F
100
AcDbEntity
  8
0
  6
Continuous
370
    15
100
AcDbLine
 10
252.0493191386
 20
139.1130474534
 30
0.0
 11
252.5352534557
 21
137.9285106616
 31
0.0
  0
ARC
  5
19C
330
1F
100
AcDbEntity
  8
0
  6
Continuous
370
    15
100
AcDbCircle
 10
252.44478627
 20
137.89335857
 30
0.0
 40
0.0970565877917581
100
AcDbArc
 50
268.5255178791
 51
21.2342242592
  0
LINE
  5
19D
330
1F
100
AcDbEntity
  8
0
  6
Continuous
370
    15
100
AcDbLine
 10
252.4422888363
 20
137.7963341192
 30
0.0
 11
252.1422874833
 21
137.7963341192
 31
0.0
  0
ARC
  5
19E
330
1F
100
AcDbEntity
  8
0
  6
Continuous
370
    15
100
AcDbCircle
 10
252.1397894988
 20
137.699307506
 30
0.0
 40
0.097058763622514
100
AcDbArc
 50
88.5252256742
 51
201.2323557186
  0
LINE
  5
19F
330
1F
100
AcDbEntity
  8
0
  6
Continuous
370
    15
100
AcDbLine
 10
252.0493191386
 20
137.6641575769
 30
0.0
 11
252.5352534557
 21
136.479620785
 31
0.0
  0
ARC
  5
1A0
330
1F
100
AcDbEntity
  8
0
  6
Continuous
370
    15
100
AcDbCircle
 10
252.4447874225
 20
136.4444692036
 30
0.0
 40
0.0970553288033417
100
AcDbArc
 50
268.5248181631
 51
21.2341899848
  0
LINE
  5
1A1
330
1F
100
AcDbEntity
  8
0
  6
Continuous
370
    15
100
AcDbLine
 10
252.4422888363
 20
136.3474460419
 30
0.0
 11
252.1422874833
 21
136.3474460419
 31
0.0
  0
ARC
  5
1A2
330
1F
100
AcDbEntity
  8
0
  6
Continuous
370
    15
100
AcDbCircle
 10
252.1397894988
 20
136.2504194287
 30
0.0
 40
0.0970587636225659
100
AcDbArc
 50
88.5252256742
 51
201.2323557186
  0
LINE
  5
1A3
330
1F
100
AcDbEntity
  8
0
  6
Continuous
370
    15
100
AcDbLine
 10
252.0493191386
 20
136.2152694995
 30
0.0
 11
252.5352534557
 21
135.0307327077
 31
0.0
  0
ARC
  5
1A4
330
1F
100
AcDbEntity
  8
0
  6
Continuous
370
    15
100
AcDbCircle
 10
252.44478627
 20
134.9955806162
 30
0.0
 40
0.0970565877917581
100
AcDbArc
 50
268.5255178791
 51
21.2342242592
  0
LINE
  5
1A5
330
1F
100
AcDbEntity
  8
0
  6
Continuous
370
    15
100
AcDbLine
 10
252.4422888363
 20
134.8985561654
 30
0.0
 11
252.1422874833
 21
134.8985561654
 31
0.0
  0
ARC
  5
1A6
330
1F
100
AcDbEntity
  8
0
  6
Continuous
370
    15
100
AcDbCircle
 10
252.1397883464
 20
134.8015308412
 30
0.0
 40
0.0970575046924508
100
AcDbArc
 50
88.5245260191
 51
201.2323213733
  0
LINE
  5
1A7
330
1F
100
AcDbEntity
  8
0
  6
Continuous
370
    15
100
AcDbLine
 10
252.0493191386
 20
134.7663814222
 30
0.0
 11
252.5352534557
 21
133.5818446304
 31
0.0
  0
ARC
  5
1A8
330
1F
100
AcDbEntity
  8
0
  6
Continuous
370
    15
100
AcDbCircle
 10
252.44478627
 20
133.5466925389
 30
0.0
 40
0.0970565877917071
100
AcDbArc
 50
268.5255178791
 51
21.2342242592
  0
LINE
  5
1A9
330
1F
100
AcDbEntity
  8
0
  6
Continuous
370
    15
100
AcDbLine
 10
252.4422888363
 20
133.449668088
 30
0.0
 11
252.1422874833
 21
133.449668088
 31
0.0
  0
ARC
  5
1AA
330
1F
100
AcDbEntity
  8
0
  6
Continuous
370
    15
100
AcDbCircle
 10
252.1397894988
 20
133.3526414748
 30
0.0
 40
0.0970587636225556
100
AcDbArc
 50
88.5252256742
 51
201.2323557186
  0
LINE
  5
1AB
330
1F
100
AcDbEntity
  8
0
  6
Continuous
370
    15
100
AcDbLine
 10
252.0493191386
 20
133.3174915457
 30
0.0
 11
252.5352534557
 21
132.1329547539
 31
0.0
  0
ARC
  5
1AC
330
1F
100
AcDbEntity
  8
0
  6
Continuous
370
    15
100
AcDbCircle
 10
252.4447874225
 20
132.0978031724
 30
0.0
 40
0.0970553288033148
100
AcDbArc
 50
268.5248181631
 51
21.2341899848
  0
LINE
  5
1AD
330
1F
100
AcDbEntity
  8
0
  6
Continuous
370
    15
100
AcDbLine
 10
252.4422888363
 20
132.0007800107
 30
0.0
 11
252.1422874833
 21
132.0007800107
 31
0.0
  0
ARC
  5
1AE
330
1F
100
AcDbEntity
  8
0
  6
Continuous
370
    15
100
AcDbCircle
 10
252.1397894988
 20
131.9037533975
 30
0.0
 40
0.0970587636225556
100
AcDbArc
 50
88.5252256742
 51
201.2323557186
  0
LINE
  5
1AF
330
1F
100
AcDbEntity
  8
0
  6
Continuous
370
    15
100
AcDbLine
 10
252.0493191386
 20
131.8686034684
 30
0.0
 11
252.5352534557
 21
130.6840666765
 31
0.0
  0
ARC
  5
1B0
330
1F
100
AcDbEntity
  8
0
  6
Continuous
370
    15
100
AcDbCircle
 10
252.44478627
 20
130.648914585
 30
0.0
 40
0.0970565877916541
100
AcDbArc
 50
268.5255178791
 51
21.2342242592
  0
LINE
  5
1B1
330
1F
100
AcDbEntity
  8
0
  6
Continuous
370
    15
100
AcDbLine
 10
252.4422888363
 20
130.5518901342
 30
0.0
 11
252.1422874833
 21
130.5518901342
 31
0.0
  0
ARC
  5
1B2
330
1F
100
AcDbEntity
  8
0
  6
Continuous
370
    15
100
AcDbCircle
 10
252.1397889654
 20
130.4548643746
 30
0.0
 40
0.097057924008962
100
AcDbArc
 50
88.5248979352
 51
201.2319494572
  0
LINE
  5
1B3
330
1F
100
AcDbEntity
  8
0
  6
Continuous
370
    15
100
AcDbLine
 10
252.0493191386
 20
130.419715391
 30
0.0
 11
252.5352534557
 21
129.2351768
 31
0.0
  0
ARC
  5
1B4
330
1F
100
AcDbEntity
  8
0
  6
Continuous
370
    15
100
AcDbCircle
 10
252.4447868034
 20
129.200025654
 30
0.0
 40
0.0970557481255066
100
AcDbArc
 50
268.5251901037
 51
21.2338180442
  0
LINE
  5
1B5
330
1F
100
AcDbEntity
  8
0
  6
Continuous
370
    15
100
AcDbLine
 10
252.4422888363
 20
129.1030020568
 30
0.0
 11
252.1422874833
 21
129.1030020568
 31
0.0
  0
ARC
  5
1B6
330
1F
100
AcDbEntity
  8
0
  6
Continuous
370
    15
100
AcDbCircle
 10
252.1397894988
 20
129.0059754436
 30
0.0
 40
0.0970587636225693
100
AcDbArc
 50
88.5252256742
 51
201.2323557186
  0
LINE
  5
1B7
330
1F
100
AcDbEntity
  8
0
  6
Continuous
370
    15
100
AcDbLine
 10
252.0493191386
 20
128.9708255145
 30
0.0
 11
252.5352534557
 21
127.7862905218
 31
0.0
  0
ARC
  5
1B8
330
1F
100
AcDbEntity
  8
0
  6
Continuous
370
    15
100
AcDbCircle
 10
252.4447849604
 20
127.7511380307
 30
0.0
 40
0.0970579531903684
100
AcDbArc
 50
268.5263119556
 51
21.2341641599
  0
LINE
  5
1B9
330
1F
100
AcDbEntity
  8
0
  6
Continuous
370
    15
100
AcDbLine
 10
252.4422888363
 20
127.6541121803
 30
0.0
 11
252.1422874833
 21
127.6541121803
 31
0.0
  0
ARC
  5
1BA
330
1F
100
AcDbEntity
  8
0
  6
Continuous
370
    15
100
AcDbCircle
 10
252.1397881893
 20
127.5570869667
 30
0.0
 40
0.0970573982274689
100
AcDbArc
 50
88.524431588
 51
201.2324158044
  0
LINE
  5
1BB
330
1F
100
AcDbEntity
  8
0
  6
Continuous
370
    15
100
AcDbLine
 10
252.0493191386
 20
127.5219374372
 30
0.0
 11
252.5352534557
 21
126.3373988462
 31
0.0
  0
ARC
  5
1BC
330
1F
100
AcDbEntity
  8
0
  6
Continuous
370
    15
100
AcDbCircle
 10
252.4447872654
 20
126.3022473752
 30
0.0
 40
0.0970554351793169
100
AcDbArc
 50
268.5249125197
 51
21.2340956282
  0
LINE
  5
1BD
330
1F
100
AcDbEntity
  8
0
  6
Continuous
370
    15
100
AcDbLine
 10
252.4422888363
 20
126.205224103
 30
0.0
 11
252.1422874833
 21
126.205224103
 31
0.0
  0
ARC
  5
1BE
330
1F
100
AcDbEntity
  8
0
  6
Continuous
370
    15
100
AcDbCircle
 10
252.1397881893
 20
126.1081988894
 30
0.0
 40
0.0970573982274586
100
AcDbArc
 50
88.524431588
 51
201.2324158044
  0
LINE
  5
1BF
330
1F
100
AcDbEntity
  8
0
  6
Continuous
370
    15
100
AcDbLine
 10
252.0493191386
 20
126.0730493598
 30
0.0
 11
252.5352534557
 21
124.8885107688
 31
0.0
  0
ARC
  5
1C0
330
1F
100
AcDbEntity
  8
0
  6
Continuous
370
    15
100
AcDbCircle
 10
252.4447875795
 20
124.8533590769
 30
0.0
 40
0.097055222415724
100
AcDbArc
 50
268.5247237957001
 51
21.2342843521
  0
LINE
  5
1C1
330
1F
100
AcDbEntity
  8
0
  6
Continuous
370
    15
100
AcDbLine
 10
252.4422888363
 20
124.7563360257
 30
0.0
 11
252.1422874833
 21
124.7563360257
 31
0.0
  0
ARC
  5
1C2
330
1F
100
AcDbEntity
  8
0
  6
Continuous
370
    15
100
AcDbCircle
 10
252.1397885036
 20
124.6593105909
 30
0.0
 40
0.0970576111458364
100
AcDbArc
 50
88.52462043940002
 51
201.232226953
  0
LINE
  5
1C3
330
1F
100
AcDbEntity
  8
0
  6
Continuous
370
    15
100
AcDbLine
 10
252.0493191386
 20
124.6241612825
 30
0.0
 11
252.5352534557
 21
123.4396226915
 31
0.0
  0
ARC
  5
1C4
330
1F
100
AcDbEntity
  8
0
  6
Continuous
370
    15
100
AcDbCircle
 10
252.4447875795
 20
123.4044709996
 30
0.0
 40
0.0970552224157099
100
AcDbArc
 50
268.5247237957001
 51
21.2342843521
  0
LINE
  5
1C5
330
1F
100
AcDbEntity
  8
0
  6
Continuous
370
    15
100
AcDbLine
 10
252.4422888363
 20
123.3074479483
 30
0.0
 11
252.1422874833
 21
123.3074479483
 31
0.0
  0
ARC
  5
1C6
330
1F
100
AcDbEntity
  8
0
  6
Continuous
370
    15
100
AcDbCircle
 10
252.1397908084
 20
123.2104199355
 30
0.0
 40
0.0970601290403972
100
AcDbArc
 50
88.5260197536
 51
201.2322956263
  0
LINE
  5
1C7
330
1F
100
AcDbEntity
  8
0
  6
Continuous
370
    15
100
AcDbLine
 10
252.0493191386
 20
123.1752696068
 30
0.0
 11
252.5352534557
 21
121.9907346141
 31
0.0
  0
ARC
  5
1C8
330
1F
100
AcDbEntity
  8
0
  6
Continuous
370
    15
100
AcDbCircle
 10
252.4447822878
 20
121.9555840028
 30
0.0
 40
0.0970597636206643
100
AcDbArc
 50
268.5279176765001
 51
21.232558439
  0
LINE
  5
1C9
330
1F
100
AcDbEntity
  8
0
  6
Continuous
370
    15
100
AcDbLine
 10
252.4422888363
 20
121.8585562726
 30
0.0
 11
252.1422874833
 21
121.8585562726
 31
0.0
  0
ARC
  5
1CA
330
1F
100
AcDbEntity
  8
0
  6
Continuous
370
    15
100
AcDbCircle
 10
252.1397881893
 20
121.761531059
 30
0.0
 40
0.097057398227474
100
AcDbArc
 50
88.524431588
 51
201.2324158044
  0
LINE
  5
1CB
330
1F
100
AcDbEntity
  8
0
  6
Continuous
370
    15
100
AcDbLine
 10
252.0493191386
 20
121.7263815295
 30
0.0
 11
252.5352534557
 21
120.5418465368
 31
0.0
  0
ARC
  5
1CC
330
1F
100
AcDbEntity
  8
0
  6
Continuous
370
    15
100
AcDbCircle
 10
252.4447849604
 20
120.5066940457
 30
0.0
 40
0.0970579531903969
100
AcDbArc
 50
268.5263119556
 51
21.2341641599
  0
LINE
  5
1CD
330
1F
100
AcDbEntity
  8
0
  6
Continuous
370
    15
100
AcDbLine
 10
252.4422888363
 20
120.4096681953
 30
0.0
 11
252.1422874833
 21
120.4096681953
 31
0.0
  0
ARC
  5
1CE
330
1F
100
AcDbEntity
  8
0
  6
Continuous
370
    15
100
AcDbCircle
 10
252.1397881893
 20
120.3126429817
 30
0.0
 40
0.0970573982274586
100
AcDbArc
 50
88.524431588
 51
201.2324158044
  0
LINE
  5
1CF
330
1F
100
AcDbEntity
  8
0
  6
Continuous
370
    15
100
AcDbLine
 10
252.0493191386
 20
120.2774934521
 30
0.0
 11
252.5352534557
 21
119.0929548611
 31
0.0
  0
ARC
  5
1D0
330
1F
100
AcDbEntity
  8
0
  6
Continuous
370
    15
100
AcDbCircle
 10
252.4447872654
 20
119.0578033902
 30
0.0
 40
0.09705543517929
100
AcDbArc
 50
268.5249125197
 51
21.2340956282
  0
LINE
  5
1D1
330
1F
100
AcDbEntity
  8
0
  6
Continuous
370
    15
100
AcDbLine
 10
252.4422888363
 20
118.960780118
 30
0.0
 11
252.1422874833
 21
118.960780118
 31
0.0
  0
ARC
  5
1D2
330
1F
100
AcDbEntity
  8
0
  6
Continuous
370
    15
100
AcDbCircle
 10
252.1397881893
 20
118.8637549043
 30
0.0
 40
0.0970573982274637
100
AcDbArc
 50
88.524431588
 51
201.2324158044
  0
LINE
  5
1D3
330
1F
100
AcDbEntity
  8
0
  6
Continuous
370
    15
100
AcDbLine
 10
252.0493191386
 20
118.8286053748
 30
0.0
 11
252.5352534557
 21
117.6440667838
 31
0.0
  0
ARC
  5
1D4
330
1F
100
AcDbEntity
  8
0
  6
Continuous
370
    15
100
AcDbCircle
 10
252.4447875795
 20
117.6089150919
 30
0.0
 40
0.0970552224156829
100
AcDbArc
 50
268.5247237957001
 51
21.2342843521
  0
LINE
  5
1D5
330
1F
100
AcDbEntity
  8
0
  6
Continuous
370
    15
100
AcDbLine
 10
252.4422888363
 20
117.5118920406
 30
0.0
 11
252.1422874833
 21
117.5118920406
 31
0.0
  0
ARC
  5
1D6
330
1F
100
AcDbEntity
  8
0
  6
Continuous
370
    15
100
AcDbCircle
 10
252.1397885036
 20
117.4148666059
 30
0.0
 40
0.0970576111458693
100
AcDbArc
 50
88.52462043940002
 51
201.232226953
  0
LINE
  5
1D7
330
1F
100
AcDbEntity
  8
0
  6
Continuous
370
    15
100
AcDbLine
 10
252.0493191386
 20
117.3797172975
 30
0.0
 11
252.5352534557
 21
116.1951787064
 31
0.0
  0
ARC
  5
1D8
330
1F
100
AcDbEntity
  8
0
  6
Continuous
370
    15
100
AcDbCircle
 10
252.4447875795
 20
116.1600270146
 30
0.0
 40
0.0970552224157099
100
AcDbArc
 50
268.5247237957001
 51
21.2342843521
  0
LINE
  5
1D9
330
1F
100
AcDbEntity
  8
0
  6
Continuous
370
    15
100
AcDbLine
 10
252.4422888363
 20
116.0630039633
 30
0.0
 11
252.1422874833
 21
116.0630039633
 31
0.0
  0
ARC
  5
1DA
330
1F
100
AcDbEntity
  8
0
  6
Continuous
370
    15
100
AcDbCircle
 10
252.1397908084
 20
115.9659759505
 30
0.0
 40
0.0970601290403393
100
AcDbArc
 50
88.5260197535
 51
201.2322956263
  0
LINE
  5
1DB
330
1F
100
AcDbEntity
  8
0
  6
Continuous
370
    15
100
AcDbLine
 10
252.0493191386
 20
115.9308256218
 30
0.0
 11
252.5352534557
 21
114.7462906291
 31
0.0
  0
ARC
  5
1DC
330
1F
100
AcDbEntity
  8
0
  6
Continuous
370
    15
100
AcDbCircle
 10
252.4447875795
 20
114.7111389372
 30
0.0
 40
0.0970552224157549
100
AcDbArc
 50
268.5247237958
 51
21.2342843521
  0
LINE
  5
1DD
330
1F
100
AcDbEntity
  8
0
  6
Continuous
370
    15
100
AcDbLine
 10
251.9322481657
 20
114.6141158859
 30
0.0
 11
252.4422888363
 21
114.6141158859
 31
0.0
  0
LINE
  5
1DE
330
1F
100
AcDbEntity
  8
0
  6
Continuous
370
    15
100
AcDbLine
 10
252.4422888363
 20
113.5825370306
 30
0.0
 11
252.5422868038
 21
113.6793125307
 31
0.0
  0
LINE
  5
1DF
330
1F
100
AcDbEntity
  8
0
  6
Continuous
370
    15
100
AcDbLine
 10
173.342287233
 20
113.6793125307
 30
0.0
 11
173.4422852004
 21
113.5825370306
 31
0.0
  0
LINE
  5
1E0
330
1F
100
AcDbEntity
  8
0
  6
Continuous
370
    15
100
AcDbLine
 10
173.342287233
 20
115.130973699
 30
0.0
 11
173.4422852004
 21
115.0341981988
 31
0.0
  0
LINE
  5
1E1
330
1F
100
AcDbEntity
  8
0
  6
Continuous
370
    15
100
AcDbLine
 10
173.4674271847
 20
115.0341981988
 30
0.0
 11
173.4422852004
 21
115.0341981988
 31
0.0
  0
LINE
  5
1E2
330
1F
100
AcDbEntity
  8
0
  6
Continuous
370
    15
100
AcDbLine
 10
252.4422888363
 20
115.0341981988
 30
0.0
 11
252.5422868038
 21
115.130973699
 31
0.0
  0
LINE
  5
1E3
330
1F
100
AcDbEntity
  8
0
  6
Continuous
370
    15
100
AcDbLine
 10
252.4422888363
 20
115.0341981988
 30
0.0
 11
252.4171468521
 21
115.0341981988
 31
0.0
  0
LINE
  5
1E4
330
1F
100
AcDbEntity
  8
0
  6
Continuous
370
    15
100
AcDbLine
 10
173.4685671235
 20
116.4858593671
 30
0.0
 11
173.4422852004
 21
116.4858593671
 31
0.0
  0
LINE
  5
1E5
330
1F
100
AcDbEntity
  8
0
  6
Continuous
370
    15
100
AcDbLine
 10
173.342287233
 20
116.5826348672
 30
0.0
 11
173.4422852004
 21
116.4858593671
 31
0.0
  0
LINE
  5
1E6
330
1F
100
AcDbEntity
  8
0
  6
Continuous
370
    15
100
AcDbLine
 10
252.4422888363
 20
116.4858593671
 30
0.0
 11
252.4160069133
 21
116.4858593671
 31
0.0
  0
LINE
  5
1E7
330
1F
100
AcDbEntity
  8
0
  6
Continuous
370
    15
100
AcDbLine
 10
252.4422888363
 20
116.4858593671
 30
0.0
 11
252.5422868038
 21
116.5826348672
 31
0.0
  0
LINE
  5
1E8
330
1F
100
AcDbEntity
  8
0
  6
Continuous
370
    15
100
AcDbLine
 10
173.342287233
 20
118.0342995133
 30
0.0
 11
173.4422852004
 21
117.9375205354
 31
0.0
  0
LINE
  5
1E9
330
1F
100
AcDbEntity
  8
0
  6
Continuous
370
    15
100
AcDbLine
 10
252.4422888363
 20
117.9375205354
 30
0.0
 11
252.4148706997
 21
117.9375205354
 31
0.0
  0
LINE
  5
1EA
330
1F
100
AcDbEntity
  8
0
  6
Continuous
370
    15
100
AcDbLine
 10
173.469703337
 20
117.9375205354
 30
0.0
 11
173.4422852004
 21
117.9375205354
 31
0.0
  0
LINE
  5
1EB
330
1F
100
AcDbEntity
  8
0
  6
Continuous
370
    15
100
AcDbLine
 10
252.4422888363
 20
117.9375205354
 30
0.0
 11
252.5422868038
 21
118.0342995133
 31
0.0
  0
LINE
  5
1EC
330
1F
100
AcDbEntity
  8
0
  6
Continuous
370
    15
100
AcDbLine
 10
173.342287233
 20
119.4859606816
 30
0.0
 11
173.4422852004
 21
119.3891815831
 31
0.0
  0
LINE
  5
1ED
330
1F
100
AcDbEntity
  8
0
  6
Continuous
370
    15
100
AcDbLine
 10
252.4422888363
 20
119.3891815831
 30
0.0
 11
252.5422868038
 21
119.4859606816
 31
0.0
  0
LINE
  5
1EE
330
1F
100
AcDbEntity
  8
0
  6
Continuous
370
    15
100
AcDbLine
 10
252.4422888363
 20
119.3891815831
 30
0.0
 11
252.4137344862
 21
119.3891815831
 31
0.0
  0
LINE
  5
1EF
330
1F
100
AcDbEntity
  8
0
  6
Continuous
370
    15
100
AcDbLine
 10
173.4708395506
 20
119.3891815831
 30
0.0
 11
173.4422852004
 21
119.3891815831
 31
0.0
  0
LINE
  5
1F0
330
1F
100
AcDbEntity
  8
0
  6
Continuous
370
    15
100
AcDbLine
 10
173.3295243884
 20
107.7732401334
 30
0.0
 11
173.0422858799
 21
107.7732401334
 31
0.0
  0
LINE
  5
1F1
330
1F
100
AcDbEntity
  8
0
  6
Continuous
370
    15
100
AcDbLine
 10
173.0422858799
 20
107.7732401334
 30
0.0
 11
173.0422858799
 21
106.4241010941
 31
0.0
  0
LINE
  5
1F2
330
1F
100
AcDbEntity
  8
0
  6
Continuous
370
    15
100
AcDbLine
 10
252.4422888363
 20
120.8408427513
 30
0.0
 11
252.5422868038
 21
120.9376218498
 31
0.0
  0
LINE
  5
1F3
330
1F
100
AcDbEntity
  8
0
  6
Continuous
370
    15
100
AcDbLine
 10
173.342287233
 20
120.9376218498
 30
0.0
 11
173.4422852004
 21
120.8408427513
 31
0.0
  0
LINE
  5
1F4
330
1F
100
AcDbEntity
  8
0
  6
Continuous
370
    15
100
AcDbLine
 10
173.4719794894
 20
120.8408427513
 30
0.0
 11
173.4422852004
 21
120.8408427513
 31
0.0
  0
LINE
  5
1F5
330
1F
100
AcDbEntity
  8
0
  6
Continuous
370
    15
100
AcDbLine
 10
252.4422888363
 20
120.8408427513
 30
0.0
 11
252.4125945474
 21
120.8408427513
 31
0.0
  0
LINE
  5
1F6
330
1F
100
AcDbEntity
  8
0
  6
Continuous
370
    15
100
AcDbLine
 10
173.342287233
 20
122.3892830181
 30
0.0
 11
173.4422852004
 21
122.292507518
 31
0.0
  0
LINE
  5
1F7
330
1F
100
AcDbEntity
  8
0
  6
Continuous
370
    15
100
AcDbLine
 10
252.4422888363
 20
122.292507518
 30
0.0
 11
252.5422868038
 21
122.3892830181
 31
0.0
  0
LINE
  5
1F8
330
1F
100
AcDbEntity
  8
0
  6
Continuous
370
    15
100
AcDbLine
 10
252.4422888363
 20
122.292507518
 30
0.0
 11
252.4114583338
 21
122.292507518
 31
0.0
  0
LINE
  5
1F9
330
1F
100
AcDbEntity
  8
0
  6
Continuous
370
    15
100
AcDbLine
 10
173.473115703
 20
122.292507518
 30
0.0
 11
173.4422852004
 21
122.292507518
 31
0.0
  0
LINE
  5
1FA
330
1F
100
AcDbEntity
  8
0
  6
Continuous
370
    15
100
AcDbLine
 10
173.342287233
 20
123.8409441863
 30
0.0
 11
173.4422852004
 21
123.7441686862
 31
0.0
  0
LINE
  5
1FB
330
1F
100
AcDbEntity
  8
0
  6
Continuous
370
    15
100
AcDbLine
 10
252.4422888363
 20
123.7441686862
 30
0.0
 11
252.5422868038
 21
123.8409441863
 31
0.0
  0
LINE
  5
1FC
330
1F
100
AcDbEntity
  8
0
  6
Continuous
370
    15
100
AcDbLine
 10
173.4742556418
 20
123.7441686862
 30
0.0
 11
173.4422852004
 21
123.7441686862
 31
0.0
  0
LINE
  5
1FD
330
1F
100
AcDbEntity
  8
0
  6
Continuous
370
    15
100
AcDbLine
 10
252.4422888363
 20
123.7441686862
 30
0.0
 11
252.410318395
 21
123.7441686862
 31
0.0
  0
LINE
  5
1FE
330
1F
100
AcDbEntity
  8
0
  6
Continuous
370
    15
100
AcDbLine
 10
252.4422888363
 20
125.195829734
 30
0.0
 11
252.5422868038
 21
125.2926088324
 31
0.0
  0
LINE
  5
1FF
330
1F
100
AcDbEntity
  8
0
  6
Continuous
370
    15
100
AcDbLine
 10
173.342287233
 20
125.2926088324
 30
0.0
 11
173.4422852004
 21
125.195829734
 31
0.0
  0
LINE
  5
200
330
1F
100
AcDbEntity
  8
0
  6
Continuous
370
    15
100
AcDbLine
 10
252.4422888363
 20
125.195829734
 30
0.0
 11
252.4091821814
 21
125.195829734
 31
0.0
  0
LINE
  5
201
330
1F
100
AcDbEntity
  8
0
  6
Continuous
370
    15
100
AcDbLine
 10
173.4753918553
 20
125.195829734
 30
0.0
 11
173.4422852004
 21
125.195829734
 31
0.0
  0
LINE
  5
202
330
1F
100
AcDbEntity
  8
0
  6
Continuous
370
    15
100
AcDbLine
 10
173.342287233
 20
126.7442700007
 30
0.0
 11
173.4422852004
 21
126.6474909022
 31
0.0
  0
LINE
  5
203
330
1F
100
AcDbEntity
  8
0
  6
Continuous
370
    15
100
AcDbLine
 10
252.4422888363
 20
126.6474909022
 30
0.0
 11
252.5422868038
 21
126.7442700007
 31
0.0
  0
LINE
  5
204
330
1F
100
AcDbEntity
  8
0
  6
Continuous
370
    15
100
AcDbLine
 10
173.4765280689
 20
126.6474909022
 30
0.0
 11
173.4422852004
 21
126.6474909022
 31
0.0
  0
LINE
  5
205
330
1F
100
AcDbEntity
  8
0
  6
Continuous
370
    15
100
AcDbLine
 10
252.4422888363
 20
126.6474909022
 30
0.0
 11
252.4080459679
 21
126.6474909022
 31
0.0
  0
LINE
  5
206
330
1F
100
AcDbEntity
  8
0
  6
Continuous
370
    15
100
AcDbLine
 10
252.4422888363
 20
128.0991538696
 30
0.0
 11
252.5422868038
 21
128.195931169
 31
0.0
  0
LINE
  5
207
330
1F
100
AcDbEntity
  8
0
  6
Continuous
370
    15
100
AcDbLine
 10
173.342287233
 20
128.195931169
 30
0.0
 11
173.4422852004
 21
128.0991538696
 31
0.0
  0
LINE
  5
208
330
1F
100
AcDbEntity
  8
0
  6
Continuous
370
    15
100
AcDbLine
 10
173.4776680077
 20
128.0991538696
 30
0.0
 11
173.4422852004
 21
128.0991538696
 31
0.0
  0
LINE
  5
209
330
1F
100
AcDbEntity
  8
0
  6
Continuous
370
    15
100
AcDbLine
 10
252.4422888363
 20
128.0991538696
 30
0.0
 11
252.4069060291
 21
128.0991538696
 31
0.0
  0
LINE
  5
20A
330
1F
100
AcDbEntity
  8
0
  6
Continuous
370
    15
100
AcDbLine
 10
173.342287233
 20
129.6475923372
 30
0.0
 11
173.4422852004
 21
129.5508150379
 31
0.0
  0
LINE
  5
20B
330
1F
100
AcDbEntity
  8
0
  6
Continuous
370
    15
100
AcDbLine
 10
252.4422888363
 20
129.5508150379
 30
0.0
 11
252.5422868038
 21
129.6475923372
 31
0.0
  0
LINE
  5
20C
330
1F
100
AcDbEntity
  8
0
  6
Continuous
370
    15
100
AcDbLine
 10
252.4422888363
 20
129.5508150379
 30
0.0
 11
252.4057698155
 21
129.5508150379
 31
0.0
  0
LINE
  5
20D
330
1F
100
AcDbEntity
  8
0
  6
Continuous
370
    15
100
AcDbLine
 10
173.4788042212
 20
129.5508150379
 30
0.0
 11
173.4422852004
 21
129.5508150379
 31
0.0
  0
LINE
  5
20E
330
1F
100
AcDbEntity
  8
0
  6
Continuous
370
    15
100
AcDbLine
 10
252.4422888363
 20
131.0024778848
 30
0.0
 11
252.5422868038
 21
131.0992551841
 31
0.0
  0
LINE
  5
20F
330
1F
100
AcDbEntity
  8
0
  6
Continuous
370
    15
100
AcDbLine
 10
173.342287233
 20
131.0992551841
 30
0.0
 11
173.4422852004
 21
131.0024778848
 31
0.0
  0
LINE
  5
210
330
1F
100
AcDbEntity
  8
0
  6
Continuous
370
    15
100
AcDbLine
 10
173.4799404348
 20
131.0024778848
 30
0.0
 11
173.4422852004
 21
131.0024778848
 31
0.0
  0
LINE
  5
211
330
1F
100
AcDbEntity
  8
0
  6
Continuous
370
    15
100
AcDbLine
 10
252.4422888363
 20
131.0024778848
 30
0.0
 11
252.404633602
 21
131.0024778848
 31
0.0
  0
LINE
  5
212
330
1F
100
AcDbEntity
  8
0
  6
Continuous
370
    15
100
AcDbLine
 10
173.342287233
 20
132.5509163524
 30
0.0
 11
173.4422852004
 21
132.4541390531
 31
0.0
  0
LINE
  5
213
330
1F
100
AcDbEntity
  8
0
  6
Continuous
370
    15
100
AcDbLine
 10
252.4422888363
 20
132.4541390531
 30
0.0
 11
252.5422868038
 21
132.5509163524
 31
0.0
  0
LINE
  5
214
330
1F
100
AcDbEntity
  8
0
  6
Continuous
370
    15
100
AcDbLine
 10
252.4422888363
 20
132.4541390531
 30
0.0
 11
252.4034936632
 21
132.4541390531
 31
0.0
  0
LINE
  5
215
330
1F
100
AcDbEntity
  8
0
  6
Continuous
370
    15
100
AcDbLine
 10
173.4810803736
 20
132.4541390531
 30
0.0
 11
173.4422852004
 21
132.4541390531
 31
0.0
  0
LINE
  5
216
330
1F
100
AcDbEntity
  8
0
  6
Continuous
370
    15
100
AcDbLine
 10
173.342287233
 20
134.0025775206
 30
0.0
 11
173.4422852004
 21
133.9058002213
 31
0.0
  0
LINE
  5
217
330
1F
100
AcDbEntity
  8
0
  6
Continuous
370
    15
100
AcDbLine
 10
252.4422888363
 20
133.9058002213
 30
0.0
 11
252.5422868038
 21
134.0025775206
 31
0.0
  0
LINE
  5
218
330
1F
100
AcDbEntity
  8
0
  6
Continuous
370
    15
100
AcDbLine
 10
173.4822165872
 20
133.9058002213
 30
0.0
 11
173.4422852004
 21
133.9058002213
 31
0.0
  0
LINE
  5
219
330
1F
100
AcDbEntity
  8
0
  6
Continuous
370
    15
100
AcDbLine
 10
252.4422888363
 20
133.9058002213
 30
0.0
 11
252.4023574496
 21
133.9058002213
 31
0.0
  0
LINE
  5
21A
330
1F
100
AcDbEntity
  8
0
  6
Continuous
370
    15
100
AcDbLine
 10
252.4422888363
 20
135.3574631888
 30
0.0
 11
252.5422868038
 21
135.4542404881
 31
0.0
  0
LINE
  5
21B
330
1F
100
AcDbEntity
  8
0
  6
Continuous
370
    15
100
AcDbLine
 10
173.342287233
 20
135.4542404881
 30
0.0
 11
173.4422852004
 21
135.3574631888
 31
0.0
  0
LINE
  5
21C
330
1F
100
AcDbEntity
  8
0
  6
Continuous
370
    15
100
AcDbLine
 10
252.4422888363
 20
135.3574631888
 30
0.0
 11
252.4012175108
 21
135.3574631888
 31
0.0
  0
LINE
  5
21D
330
1F
100
AcDbEntity
  8
0
  6
Continuous
370
    15
100
AcDbLine
 10
173.483356526
 20
135.3574631888
 30
0.0
 11
173.4422852004
 21
135.3574631888
 31
0.0
  0
SPLINE
  5
21E
330
1F
100
AcDbEntity
  8
0
  6
Continuous
370
    15
100
AcDbSpline
210
0.0
220
0.0
230
1.0
 70
     8
 71
     3
 72
    11
 73
     7
 74
     0
 42
0.000000001
 43
0.00000001
 40
0.0
 40
0.0
 40
0.0
 40
0.0
 40
0.3257106953953757
 40
0.6511104624344559
 40
0.984944527372352
 40
1.0
 40
1.0
 40
1.0
 40
1.0
 10
249.3854646290238
 20
146.1060839229744
 30
0.0
 10
249.3908958628189
 20
146.2084812181402
 30
0.0
 10
249.401753145671
 20
146.4131780584651
 30
0.0
 10
249.4595726639746
 20
146.6517895780792
 30
0.0
 10
249.5135856229766
 20
146.7583484514203
 30
0.0
 10
249.5441256170319
 20
146.7942883261395
 30
0.0
 10
249.545443495601
 20
146.7958392233199
 30
0.0
  0
LINE
  5
21F
330
1F
100
AcDbEntity
  8
0
  6
Continuous
370
    15
100
AcDbLine
 10
173.342287233
 20
136.9059015358
 30
0.0
 11
173.4422852004
 21
136.8091242365
 31
0.0
  0
LINE
  5
220
330
1F
100
AcDbEntity
  8
0
  6
Continuous
370
    15
100
AcDbLine
 10
252.4422888363
 20
136.8091242365
 30
0.0
 11
252.5422868038
 21
136.9059015358
 31
0.0
  0
LINE
  5
221
330
1F
100
AcDbEntity
  8
0
  6
Continuous
370
    15
100
AcDbLine
 10
173.4844927395
 20
136.8091242365
 30
0.0
 11
173.4422852004
 21
136.8091242365
 31
0.0
  0
LINE
  5
222
330
1F
100
AcDbEntity
  8
0
  6
Continuous
370
    15
100
AcDbLine
 10
252.4422888363
 20
136.8091242365
 30
0.0
 11
252.4000812972
 21
136.8091242365
 31
0.0
  0
LINE
  5
223
330
1F
100
AcDbEntity
  8
0
  6
Continuous
370
    15
100
AcDbLine
 10
252.4422888363
 20
138.2607854048
 30
0.0
 11
252.5422868038
 21
138.3575627041
 31
0.0
  0
LINE
  5
224
330
1F
100
AcDbEntity
  8
0
  6
Continuous
370
    15
100
AcDbLine
 10
173.342287233
 20
138.3575627041
 30
0.0
 11
173.4422852004
 21
138.2607854048
 31
0.0
  0
LINE
  5
225
330
1F
100
AcDbEntity
  8
0
  6
Continuous
370
    15
100
AcDbLine
 10
173.4856289531
 20
138.2607854048
 30
0.0
 11
173.4422852004
 21
138.2607854048
 31
0.0
  0
LINE
  5
226
330
1F
100
AcDbEntity
  8
0
  6
Continuous
370
    15
100
AcDbLine
 10
252.4422888363
 20
138.2607854048
 30
0.0
 11
252.3989450837
 21
138.2607854048
 31
0.0
  0
LINE
  5
227
330
1F
100
AcDbEntity
  8
0
  6
Continuous
370
    15
100
AcDbLine
 10
252.4422888363
 20
139.7124483722
 30
0.0
 11
252.5422868038
 21
139.8092256715
 31
0.0
  0
LINE
  5
228
330
1F
100
AcDbEntity
  8
0
  6
Continuous
370
    15
100
AcDbLine
 10
173.342287233
 20
139.8092256715
 30
0.0
 11
173.4422852004
 21
139.7124483722
 31
0.0
  0
LINE
  5
229
330
1F
100
AcDbEntity
  8
0
  6
Continuous
370
    15
100
AcDbLine
 10
252.4422888363
 20
139.7124483722
 30
0.0
 11
252.3978051449
 21
139.7124483722
 31
0.0
  0
LINE
  5
22A
330
1F
100
AcDbEntity
  8
0
  6
Continuous
370
    15
100
AcDbLine
 10
173.4867688919
 20
139.7124483722
 30
0.0
 11
173.4422852004
 21
139.7124483722
 31
0.0
  0
LINE
  5
22B
330
1F
100
AcDbEntity
  8
0
  6
Continuous
370
    15
100
AcDbLine
 10
252.4422888363
 20
141.1641095405
 30
0.0
 11
252.5422868038
 21
141.2608868398
 31
0.0
  0
LINE
  5
22C
330
1F
100
AcDbEntity
  8
0
  6
Continuous
370
    15
100
AcDbLine
 10
173.4879051054
 20
141.1641095405
 30
0.0
 11
173.4422852004
 21
141.1641095405
 31
0.0
  0
LINE
  5
22D
330
1F
100
AcDbEntity
  8
0
  6
Continuous
370
    15
100
AcDbLine
 10
173.342287233
 20
141.2608868398
 30
0.0
 11
173.4422852004
 21
141.1641095405
 31
0.0
  0
LINE
  5
22E
330
1F
100
AcDbEntity
  8
0
  6
Continuous
370
    15
100
AcDbLine
 10
252.4422888363
 20
141.1641095405
 30
0.0
 11
252.3966689313
 21
141.1641095405
 31
0.0
  0
LINE
  5
22F
330
1F
100
AcDbEntity
  8
0
  6
Continuous
370
    15
100
AcDbLine
 10
252.4422888363
 20
142.6157705882
 30
0.0
 11
252.5422868038
 21
142.7125496867
 31
0.0
  0
LINE
  5
230
330
1F
100
AcDbEntity
  8
0
  6
Continuous
370
    15
100
AcDbLine
 10
173.489041319
 20
142.6157705882
 30
0.0
 11
173.4422852004
 21
142.6157705882
 31
0.0
  0
LINE
  5
231
330
1F
100
AcDbEntity
  8
0
  6
Continuous
370
    15
100
AcDbLine
 10
252.4422888363
 20
142.6157705882
 30
0.0
 11
252.3955327178
 21
142.6157705882
 31
0.0
  0
LINE
  5
232
330
1F
100
AcDbEntity
  8
0
  6
Continuous
370
    15
100
AcDbLine
 10
173.342287233
 20
142.7125496867
 30
0.0
 11
173.4422852004
 21
142.6157705882
 31
0.0
  0
LINE
  5
233
330
1F
100
AcDbEntity
  8
0
  6
Continuous
370
    15
100
AcDbLine
 10
252.4422888363
 20
144.0674335556
 30
0.0
 11
252.5422868038
 21
144.1642108549
 31
0.0
  0
LINE
  5
234
330
1F
100
AcDbEntity
  8
0
  6
Continuous
370
    15
100
AcDbLine
 10
252.4422888363
 20
144.0674335556
 30
0.0
 11
252.394392779
 21
144.0674335556
 31
0.0
  0
LINE
  5
235
330
1F
100
AcDbEntity
  8
0
  6
Continuous
370
    15
100
AcDbLine
 10
173.342287233
 20
144.1642108549
 30
0.0
 11
173.4422852004
 21
144.0674335556
 31
0.0
  0
LINE
  5
236
330
1F
100
AcDbEntity
  8
0
  6
Continuous
370
    15
100
AcDbLine
 10
173.4901812578
 20
144.0674335556
 30
0.0
 11
173.4422852004
 21
144.0674335556
 31
0.0
  0
LINE
  5
237
330
1F
100
AcDbEntity
  8
0
  6
Continuous
370
    15
100
AcDbLine
 10
173.3790521229
 20
110.6204444027
 30
0.0
 11
173.349320581
 21
110.7306450251
 31
0.0
  0
LINE
  5
238
330
1F
100
AcDbEntity
  8
0
  6
Continuous
370
    15
100
AcDbLine
 10
173.3845394755
 20
110.8163337638
 30
0.0
 11
173.349320581
 21
110.7306450251
 31
0.0
  0
LINE
  5
239
330
1F
100
AcDbEntity
  8
0
  6
Continuous
370
    15
100
AcDbLine
 10
173.4060865546
 20
112.0513747143
 30
0.0
 11
173.349320581
 21
112.1767600116
 31
0.0
  0
LINE
  5
23A
330
1F
100
AcDbEntity
  8
0
  6
Continuous
370
    15
100
AcDbLine
 10
173.4118868316
 20
112.3289807478
 30
0.0
 11
173.349320581
 21
112.1767600116
 31
0.0
  0
LINE
  5
23B
330
1F
100
AcDbEntity
  8
0
  6
Continuous
370
    15
100
AcDbLine
 10
173.4422852004
 20
113.4909532305
 30
0.0
 11
173.349320581
 21
113.622874998
 31
0.0
  0
LINE
  5
23C
330
1F
100
AcDbEntity
  8
0
  6
Continuous
370
    15
100
AcDbLine
 10
173.3539064134
 20
113.6340337518
 30
0.0
 11
173.349320581
 21
113.622874998
 31
0.0
  0
LINE
  5
23D
330
1F
100
AcDbEntity
  8
0
  6
Continuous
370
    15
100
AcDbLine
 10
173.4422852004
 20
114.9370682169
 30
0.0
 11
173.349320581
 21
115.0689899844
 31
0.0
  0
LINE
  5
23E
330
1F
100
AcDbEntity
  8
0
  6
Continuous
370
    15
100
AcDbLine
 10
173.3552251662
 20
115.0833631185
 30
0.0
 11
173.349320581
 21
115.0689899844
 31
0.0
  0
LINE
  5
23F
330
1F
100
AcDbEntity
  8
0
  6
Continuous
370
    15
100
AcDbLine
 10
173.4422852004
 20
116.3831833239
 30
0.0
 11
173.349320581
 21
116.5151086897
 31
0.0
  0
LINE
  5
240
330
1F
100
AcDbEntity
  8
0
  6
Continuous
370
    15
100
AcDbLine
 10
173.3565811718
 20
116.5327751269
 30
0.0
 11
173.349320581
 21
116.5151086897
 31
0.0
  0
LINE
  5
241
330
1F
100
AcDbEntity
  8
0
  6
Continuous
370
    15
100
AcDbLine
 10
173.4422852004
 20
117.8292983103
 30
0.0
 11
173.349320581
 21
117.9612236761
 31
0.0
  0
LINE
  5
242
330
1F
100
AcDbEntity
  8
0
  6
Continuous
370
    15
100
AcDbLine
 10
173.3579707051
 20
117.982266058
 30
0.0
 11
173.349320581
 21
117.9612236761
 31
0.0
  0
LINE
  5
243
330
1F
100
AcDbEntity
  8
0
  6
Continuous
370
    15
100
AcDbLine
 10
173.4422852004
 20
119.2754168951
 30
0.0
 11
173.349320581
 21
119.4073386625
 31
0.0
  0
LINE
  5
244
330
1F
100
AcDbEntity
  8
0
  6
Continuous
370
    15
100
AcDbLine
 10
173.3593900407
 20
119.4318360323
 30
0.0
 11
173.349320581
 21
119.4073386625
 31
0.0
  0
LINE
  5
245
330
1F
100
AcDbEntity
  8
0
  6
Continuous
370
    15
100
AcDbLine
 10
173.4422852004
 20
120.7215318815
 30
0.0
 11
173.349320581
 21
120.8534536489
 31
0.0
  0
LINE
  5
246
330
1F
100
AcDbEntity
  8
0
  6
Continuous
370
    15
100
AcDbLine
 10
173.3608354534
 20
120.8814743754
 30
0.0
 11
173.349320581
 21
120.8534536489
 31
0.0
  0
LINE
  5
247
330
1F
100
AcDbEntity
  8
0
  6
Continuous
370
    15
100
AcDbLine
 10
173.4422852004
 20
122.1676469884
 30
0.0
 11
173.349320581
 21
122.2995687559
 31
0.0
  0
LINE
  5
248
330
1F
100
AcDbEntity
  8
0
  6
Continuous
370
    15
100
AcDbLine
 10
173.3623143936
 20
122.3311844445
 30
0.0
 11
173.349320581
 21
122.2995687559
 31
0.0
  0
LINE
  5
249
330
1F
100
AcDbEntity
  8
0
  6
Continuous
370
    15
100
AcDbLine
 10
173.4216135646
 20
123.615845043
 30
0.0
 11
173.349320581
 21
123.7456873406
 31
0.0
  0
LINE
  5
24A
330
1F
100
AcDbEntity
  8
0
  6
Continuous
370
    15
100
AcDbLine
 10
173.3638156856
 20
123.7809555651
 30
0.0
 11
173.349320581
 21
123.7456873406
 31
0.0
  0
LINE
  5
24B
330
1F
100
AcDbEntity
  8
0
  6
Continuous
370
    15
100
AcDbLine
 10
173.4205630327
 20
125.0621809666
 30
0.0
 11
173.349320581
 21
125.1918005279
 31
0.0
  0
LINE
  5
24C
330
1F
100
AcDbEntity
  8
0
  6
Continuous
370
    15
100
AcDbLine
 10
173.3653467799
 20
125.2307913356
 30
0.0
 11
173.349320581
 21
125.1918005279
 31
0.0
  0
LINE
  5
24D
330
1F
100
AcDbEntity
  8
0
  6
Continuous
370
    15
100
AcDbLine
 10
173.4195199514
 20
126.5085257656
 30
0.0
 11
173.349320581
 21
126.6379173135
 31
0.0
  0
LINE
  5
24E
330
1F
100
AcDbEntity
  8
0
  6
Continuous
370
    15
100
AcDbLine
 10
173.366900226
 20
126.6806863584
 30
0.0
 11
173.349320581
 21
126.6379173135
 31
0.0
  0
LINE
  5
24F
330
1F
100
AcDbEntity
  8
0
  6
Continuous
370
    15
100
AcDbLine
 10
173.4184805954
 20
127.9548814802
 30
0.0
 11
173.349320581
 21
128.0840324204
 31
0.0
  0
LINE
  5
250
330
1F
100
AcDbEntity
  8
0
  6
Continuous
370
    15
100
AcDbLine
 10
173.3684760238
 20
128.1306370352
 30
0.0
 11
173.349320581
 21
128.0840324204
 31
0.0
  0
LINE
  5
251
330
1F
100
AcDbEntity
  8
0
  6
Continuous
370
    15
100
AcDbLine
 10
173.4174449647
 20
129.4012478693
 30
0.0
 11
173.349320581
 21
129.530149206
 31
0.0
  0
LINE
  5
252
330
1F
100
AcDbEntity
  8
0
  6
Continuous
370
    15
100
AcDbLine
 10
173.3700741733
 20
129.5806451651
 30
0.0
 11
173.349320581
 21
129.530149206
 31
0.0
  0
LINE
  5
253
330
1F
100
AcDbEntity
  8
0
  6
Continuous
370
    15
100
AcDbLine
 10
173.4164167846
 20
130.8476232543
 30
0.0
 11
173.349320581
 21
130.9762641924
 31
0.0
  0
LINE
  5
254
330
1F
100
AcDbEntity
  8
0
  6
Continuous
370
    15
100
AcDbLine
 10
173.3716946746
 20
131.0307072703
 30
0.0
 11
173.349320581
 21
130.9762641924
 31
0.0
  0
LINE
  5
255
330
1F
100
AcDbEntity
  8
0
  6
Continuous
370
    15
100
AcDbLine
 10
173.4153886045
 20
132.2940094343
 30
0.0
 11
173.349320581
 21
132.4223791788
 31
0.0
  0
LINE
  5
256
330
1F
100
AcDbEntity
  8
0
  6
Continuous
370
    15
100
AcDbLine
 10
173.3733412529
 20
132.4808196319
 30
0.0
 11
173.349320581
 21
132.4223791788
 31
0.0
  0
LINE
  5
257
330
1F
100
AcDbEntity
  8
0
  6
Continuous
370
    15
100
AcDbLine
 10
173.4143678749
 20
133.7404064095
 30
0.0
 11
173.349320581
 21
133.8684960849
 31
0.0
  0
LINE
  5
258
330
1F
100
AcDbEntity
  8
0
  6
Continuous
370
    15
100
AcDbLine
 10
173.3750027324
 20
133.9309839287
 30
0.0
 11
173.349320581
 21
133.8684960849
 31
0.0
  0
LINE
  5
259
330
1F
100
AcDbEntity
  8
0
  6
Continuous
370
    15
100
AcDbLine
 10
173.4133471454
 20
135.18681226
 30
0.0
 11
173.349320581
 21
135.3146110713
 31
0.0
  0
LINE
  5
25A
330
1F
100
AcDbEntity
  8
0
  6
Continuous
370
    15
100
AcDbLine
 10
173.3766865636
 20
135.381195004
 30
0.0
 11
173.349320581
 21
135.3146110713
 31
0.0
  0
LINE
  5
25B
330
1F
100
AcDbEntity
  8
0
  6
Continuous
370
    15
100
AcDbLine
 10
173.4123338664
 20
136.6332308252
 30
0.0
 11
173.349320581
 21
136.7607260578
 31
0.0
  0
LINE
  5
25C
330
1F
100
AcDbEntity
  8
0
  6
Continuous
370
    15
100
AcDbLine
 10
173.3783927465
 20
136.8314564563
 30
0.0
 11
173.349320581
 21
136.7607260578
 31
0.0
  0
LINE
  5
25D
330
1F
100
AcDbEntity
  8
0
  6
Continuous
370
    15
100
AcDbLine
 10
173.4113243128
 20
138.0796564666
 30
0.0
 11
173.349320581
 21
138.2068428434
 31
0.0
  0
LINE
  5
25E
330
1F
100
AcDbEntity
  8
0
  6
Continuous
370
    15
100
AcDbLine
 10
173.3801138307
 20
138.2817644462
 30
0.0
 11
173.349320581
 21
138.2068428434
 31
0.0
  0
LINE
  5
25F
330
1F
100
AcDbEntity
  8
0
  6
Continuous
370
    15
100
AcDbLine
 10
173.4103184844
 20
139.5260947023
 30
0.0
 11
173.349320581
 21
139.6529579503
 31
0.0
  0
LINE
  5
260
330
1F
100
AcDbEntity
  8
0
  6
Continuous
370
    15
100
AcDbLine
 10
173.3818572665
 20
139.7321174155
 30
0.0
 11
173.349320581
 21
139.6529579503
 31
0.0
  0
LINE
  5
261
330
1F
100
AcDbEntity
  8
0
  6
Continuous
370
    15
100
AcDbLine
 10
173.4093163813
 20
140.9725410343
 30
0.0
 11
173.349320581
 21
141.0990738363
 31
0.0
  0
LINE
  5
262
330
1F
100
AcDbEntity
  8
0
  6
Continuous
370
    15
100
AcDbLine
 10
173.3836156035
 20
141.1825170429
 30
0.0
 11
173.349320581
 21
141.0990738363
 31
0.0
  0
LINE
  5
263
330
1F
100
AcDbEntity
  8
0
  6
Continuous
370
    15
100
AcDbLine
 10
252.5352534557
 20
141.0990738363
 30
0.0
 11
252.4752576555
 21
140.9725410343
 31
0.0
  0
LINE
  5
264
330
1F
100
AcDbEntity
  8
0
  6
Continuous
370
    15
100
AcDbLine
 10
252.5352534557
 20
139.6529579503
 30
0.0
 11
252.5027167703
 21
139.7321174155
 31
0.0
  0
LINE
  5
265
330
1F
100
AcDbEntity
  8
0
  6
Continuous
370
    15
100
AcDbLine
 10
252.5352534557
 20
139.6529579503
 30
0.0
 11
252.4742555524
 21
139.5260947023
 31
0.0
  0
LINE
  5
266
330
1F
100
AcDbEntity
  8
0
  6
Continuous
370
    15
100
AcDbLine
 10
252.5352534557
 20
138.2068428434
 30
0.0
 11
252.5044602061
 21
138.2817644462
 31
0.0
  0
LINE
  5
267
330
1F
100
AcDbEntity
  8
0
  6
Continuous
370
    15
100
AcDbLine
 10
252.5352534557
 20
138.2068428434
 30
0.0
 11
252.473249724
 21
138.0796564666
 31
0.0
  0
LINE
  5
268
330
1F
100
AcDbEntity
  8
0
  6
Continuous
370
    15
100
AcDbLine
 10
252.5352534557
 20
136.7607260578
 30
0.0
 11
252.5061812902
 21
136.8314564563
 31
0.0
  0
LINE
  5
269
330
1F
100
AcDbEntity
  8
0
  6
Continuous
370
    15
100
AcDbLine
 10
252.5352534557
 20
136.7607260578
 30
0.0
 11
252.4722401703
 21
136.6332308252
 31
0.0
  0
LINE
  5
26A
330
1F
100
AcDbEntity
  8
0
  6
Continuous
370
    15
100
AcDbLine
 10
252.5352534557
 20
135.3146110713
 30
0.0
 11
252.5078874732
 21
135.381195004
 31
0.0
  0
LINE
  5
26B
330
1F
100
AcDbEntity
  8
0
  6
Continuous
370
    15
100
AcDbLine
 10
252.5352534557
 20
135.3146110713
 30
0.0
 11
252.4712268914
 21
135.18681226
 31
0.0
  0
LINE
  5
26C
330
1F
100
AcDbEntity
  8
0
  6
Continuous
370
    15
100
AcDbLine
 10
252.5352534557
 20
133.8684960849
 30
0.0
 11
252.5095713044
 21
133.9309839287
 31
0.0
  0
LINE
  5
26D
330
1F
100
AcDbEntity
  8
0
  6
Continuous
370
    15
100
AcDbLine
 10
252.5352534557
 20
133.8684960849
 30
0.0
 11
252.4702061618
 21
133.7404064095
 31
0.0
  0
LINE
  5
26E
330
1F
100
AcDbEntity
  8
0
  6
Continuous
370
    15
100
AcDbLine
 10
252.5352534557
 20
132.4223791788
 30
0.0
 11
252.5112327839
 21
132.4808196319
 31
0.0
  0
LINE
  5
26F
330
1F
100
AcDbEntity
  8
0
  6
Continuous
370
    15
100
AcDbLine
 10
252.5352534557
 20
132.4223791788
 30
0.0
 11
252.4691854323
 21
132.2940094343
 31
0.0
  0
LINE
  5
270
330
1F
100
AcDbEntity
  8
0
  6
Continuous
370
    15
100
AcDbLine
 10
252.5352534557
 20
130.9762641924
 30
0.0
 11
252.5128793622
 21
131.0307072703
 31
0.0
  0
LINE
  5
271
330
1F
100
AcDbEntity
  8
0
  6
Continuous
370
    15
100
AcDbLine
 10
252.5352534557
 20
130.9762641924
 30
0.0
 11
252.4681572522
 21
130.8476232543
 31
0.0
  0
LINE
  5
272
330
1F
100
AcDbEntity
  8
0
  6
Continuous
370
    15
100
AcDbLine
 10
252.5352534557
 20
129.530149206
 30
0.0
 11
252.5144998635
 21
129.5806451651
 31
0.0
  0
LINE
  5
273
330
1F
100
AcDbEntity
  8
0
  6
Continuous
370
    15
100
AcDbLine
 10
252.5352534557
 20
129.530149206
 30
0.0
 11
252.467129072
 21
129.4012478693
 31
0.0
  0
LINE
  5
274
330
1F
100
AcDbEntity
  8
0
  6
Continuous
370
    15
100
AcDbLine
 10
252.5352534557
 20
128.0840324204
 30
0.0
 11
252.516098013
 21
128.1306370352
 31
0.0
  0
LINE
  5
275
330
1F
100
AcDbEntity
  8
0
  6
Continuous
370
    15
100
AcDbLine
 10
252.5352534557
 20
128.0840324204
 30
0.0
 11
252.4660934413
 21
127.9548814802
 31
0.0
  0
LINE
  5
276
330
1F
100
AcDbEntity
  8
0
  6
Continuous
370
    15
100
AcDbLine
 10
252.5352534557
 20
126.6379173135
 30
0.0
 11
252.5176738108
 21
126.6806863584
 31
0.0
  0
LINE
  5
277
330
1F
100
AcDbEntity
  8
0
  6
Continuous
370
    15
100
AcDbLine
 10
252.5352534557
 20
126.6379173135
 30
0.0
 11
252.4650540853
 21
126.5085257656
 31
0.0
  0
LINE
  5
278
330
1F
100
AcDbEntity
  8
0
  6
Continuous
370
    15
100
AcDbLine
 10
252.5352534557
 20
125.1918005279
 30
0.0
 11
252.5192272569
 21
125.2307913356
 31
0.0
  0
LINE
  5
279
330
1F
100
AcDbEntity
  8
0
  6
Continuous
370
    15
100
AcDbLine
 10
252.5352534557
 20
125.1918005279
 30
0.0
 11
252.4640110041
 21
125.0621809666
 31
0.0
  0
LINE
  5
27A
330
1F
100
AcDbEntity
  8
0
  6
Continuous
370
    15
100
AcDbLine
 10
252.5352534557
 20
123.7456873406
 30
0.0
 11
252.5207583512
 21
123.7809555651
 31
0.0
  0
LINE
  5
27B
330
1F
100
AcDbEntity
  8
0
  6
Continuous
370
    15
100
AcDbLine
 10
252.5352534557
 20
123.7456873406
 30
0.0
 11
252.4629604722
 21
123.615845043
 31
0.0
  0
LINE
  5
27C
330
1F
100
AcDbEntity
  8
0
  6
Continuous
370
    15
100
AcDbLine
 10
252.5352534557
 20
122.2995687559
 30
0.0
 11
252.5222596432
 21
122.3311844445
 31
0.0
  0
LINE
  5
27D
330
1F
100
AcDbEntity
  8
0
  6
Continuous
370
    15
100
AcDbLine
 10
252.5352534557
 20
122.2995687559
 30
0.0
 11
252.4422888363
 21
122.1676469884
 31
0.0
  0
LINE
  5
27E
330
1F
100
AcDbEntity
  8
0
  6
Continuous
370
    15
100
AcDbLine
 10
252.5352534557
 20
120.8534536489
 30
0.0
 11
252.5237385834
 21
120.8814743754
 31
0.0
  0
LINE
  5
27F
330
1F
100
AcDbEntity
  8
0
  6
Continuous
370
    15
100
AcDbLine
 10
252.5352534557
 20
120.8534536489
 30
0.0
 11
252.4422888363
 21
120.7215318815
 31
0.0
  0
LINE
  5
280
330
1F
100
AcDbEntity
  8
0
  6
Continuous
370
    15
100
AcDbLine
 10
252.5352534557
 20
119.4073386625
 30
0.0
 11
252.5251839961
 21
119.4318360323
 31
0.0
  0
LINE
  5
281
330
1F
100
AcDbEntity
  8
0
  6
Continuous
370
    15
100
AcDbLine
 10
252.5352534557
 20
119.4073386625
 30
0.0
 11
252.4422888363
 21
119.2754168951
 31
0.0
  0
LINE
  5
282
330
1F
100
AcDbEntity
  8
0
  6
Continuous
370
    15
100
AcDbLine
 10
252.5352534557
 20
117.9612236761
 30
0.0
 11
252.5266033317
 21
117.982266058
 31
0.0
  0
LINE
  5
283
330
1F
100
AcDbEntity
  8
0
  6
Continuous
370
    15
100
AcDbLine
 10
252.5352534557
 20
117.9612236761
 30
0.0
 11
252.4422888363
 21
117.8292983103
 31
0.0
  0
LINE
  5
284
330
1F
100
AcDbEntity
  8
0
  6
Continuous
370
    15
100
AcDbLine
 10
252.5352534557
 20
116.5151086897
 30
0.0
 11
252.5279928649
 21
116.5327751269
 31
0.0
  0
LINE
  5
285
330
1F
100
AcDbEntity
  8
0
  6
Continuous
370
    15
100
AcDbLine
 10
252.5352534557
 20
116.5151086897
 30
0.0
 11
252.4422888363
 21
116.3831833239
 31
0.0
  0
LINE
  5
286
330
1F
100
AcDbEntity
  8
0
  6
Continuous
370
    15
100
AcDbLine
 10
252.5352534557
 20
115.0689899844
 30
0.0
 11
252.5293488706
 21
115.0833631185
 31
0.0
  0
LINE
  5
287
330
1F
100
AcDbEntity
  8
0
  6
Continuous
370
    15
100
AcDbLine
 10
252.5352534557
 20
115.0689899844
 30
0.0
 11
252.4422888363
 21
114.9370682169
 31
0.0
  0
LINE
  5
288
330
1F
100
AcDbEntity
  8
0
  6
Continuous
370
    15
100
AcDbLine
 10
252.5352534557
 20
113.622874998
 30
0.0
 11
252.5306676234
 21
113.6340337518
 31
0.0
  0
LINE
  5
289
330
1F
100
AcDbEntity
  8
0
  6
Continuous
370
    15
100
AcDbLine
 10
252.5352534557
 20
113.622874998
 30
0.0
 11
252.4422888363
 21
113.4909532305
 31
0.0
  0
LINE
  5
28A
330
1F
100
AcDbEntity
  8
0
  6
Continuous
370
    15
100
AcDbLine
 10
252.5352534557
 20
112.1767600116
 30
0.0
 11
252.4726872052
 21
112.3289807478
 31
0.0
  0
LINE
  5
28B
330
1F
100
AcDbEntity
  8
0
  6
Continuous
370
    15
100
AcDbLine
 10
252.5352534557
 20
112.1767600116
 30
0.0
 11
252.4777722264
 21
112.0511125165
 31
0.0
  0
LINE
  5
28C
330
1F
100
AcDbEntity
  8
0
  6
Continuous
370
    15
100
AcDbLine
 10
252.5352534557
 20
110.7306450251
 30
0.0
 11
252.5000345612
 21
110.8163337638
 31
0.0
  0
LINE
  5
28D
330
1F
100
AcDbEntity
  8
0
  6
Continuous
370
    15
100
AcDbLine
 10
252.5352534557
 20
110.7306450251
 30
0.0
 11
252.5055405403
 21
110.6204587961
 31
0.0
  0
LINE
  5
28E
330
1F
100
AcDbEntity
  8
0
  6
Continuous
370
    15
100
AcDbLine
 10
252.5352534557
 20
141.0990738363
 30
0.0
 11
252.5009584332
 21
141.1825170429
 31
0.0
  0
ARC
  5
28F
330
1F
100
AcDbEntity
  8
0
  6
Continuous
370
    15
100
AcDbCircle
 10
173.4368767363
 20
109.6639521475
 30
0.0
 40
0.0945897525060241
100
AcDbArc
 50
180.1315195437
 51
216.8240592161
  0
ARC
  5
290
330
1F
100
AcDbEntity
  8
0
  6
Continuous
370
    15
100
AcDbCircle
 10
252.4476973005
 20
109.6639521475
 30
0.0
 40
0.0945897525059965
100
AcDbArc
 50
323.1759407839
 51
359.8684804563001
  0
ARC
  5
291
330
1F
100
AcDbEntity
  8
0
  6
Continuous
370
    15
100
AcDbCircle
 10
252.4465709718
 20
111.1131280555
 30
0.0
 40
0.0957171639748483
100
AcDbArc
 50
301.9470066008
 51
359.6977343485
  0
ARC
  5
292
330
1F
100
AcDbEntity
  8
0
  6
Continuous
370
    15
100
AcDbCircle
 10
173.438003065
 20
111.1131280555
 30
0.0
 40
0.0957171639748768
100
AcDbArc
 50
180.3022656514999
 51
238.0529933992
  0
ARC
  5
293
330
1F
100
AcDbEntity
  8
0
  6
Continuous
370
    15
100
AcDbCircle
 10
173.439324237
 20
112.5625451623
 30
0.0
 40
0.0970425127854416
100
AcDbArc
 50
180.610496901
 51
254.9156710775001
  0
ARC
  5
294
330
1F
100
AcDbEntity
  8
0
  6
Continuous
370
    15
100
AcDbCircle
 10
252.4452497997
 20
112.5625451623
 30
0.0
 40
0.0970425127854088
100
AcDbArc
 50
285.0843289224001
 51
359.389503099
  0
ARC
  5
295
330
1F
100
AcDbEntity
  8
0
  6
Continuous
370
    15
100
AcDbCircle
 10
218.5016278574
 20
51.9295667837
 30
0.0
 40
76.30390197404837
100
AcDbArc
 50
72.4891039646
 51
87.4088440953
  0
LWPOLYLINE
  5
296
330
1F
100
AcDbEntity
  8
0
  6
Continuous
370
    15
100
AcDbPolyline
 90
        3
 70
   128
 43
0.0
 10
217.8620027097
 20
128.3691487296
 10
217.6740096601
 20
128.3758728936
 10
217.3422869945
 20
128.3870881897
  0
ARC
  5
297
330
1F
100
AcDbEntity
  8
0
  6
Continuous
370
    15
100
AcDbCircle
 10
212.9422870184
 20
-7.4527065576
 30
0.0
 40
135.9111634546654
100
AcDbArc
 50
88.7597732503
 51
91.24022674969999
  0
LWPOLYLINE
  5
298
330
1F
100
AcDbEntity
  8
0
  6
Continuous
370
    15
100
AcDbPolyline
 90
        3
 70
   128
 43
0.0
 10
208.5422870422
 20
128.3870881897
 10
208.2105643767
 20
128.3758728936
 10
208.0090592335
 20
128.3686550715
  0
ARC
  5
299
330
1F
100
AcDbEntity
  8
0
  6
Continuous
370
    15
100
AcDbCircle
 10
209.4375094812
 20
36.1308656135
 30
0.0
 40
92.18912762965634
100
AcDbArc
 50
93.41707682970001
 51
103.0462502856
  0
ARC
  5
29A
330
1F
100
AcDbEntity
  8
0
  6
Continuous
370
    15
100
AcDbCircle
 10
245.7879745485
 20
147.7478771786
 30
0.0
 40
2.905471699711628
100
AcDbArc
 50
1.6173933218
 51
37.39312851499999
  0
ARC
  5
29B
330
1F
100
AcDbEntity
  8
0
  6
Continuous
370
    15
100
AcDbCircle
 10
209.3525962446
 20
38.7383610641
 30
0.0
 40
89.41776319517867
100
AcDbArc
 50
93.52212005120002
 51
103.4040008277
  0
LWPOLYLINE
  5
29C
330
1F
100
AcDbEntity
  8
0
  6
Continuous
370
    15
100
AcDbPolyline
 90
        3
 70
   128
 43
0.0
 10
208.0087188351
 20
128.209518774
 10
208.2922655808
 20
128.2197679657
 10
208.5422870422
 20
128.2282941748
  0
LWPOLYLINE
  5
29D
330
1F
100
AcDbEntity
  8
0
  6
Continuous
370
    15
100
AcDbPolyline
 90
        3
 70
   128
 43
0.0
 10
217.3422869945
 20
128.2282941748
 10
217.5923084559
 20
128.2197679657
 10
217.8643482457
 20
128.209945904
  0
ARC
  5
29E
330
1F
100
AcDbEntity
  8
0
  6
Continuous
370
    15
100
AcDbCircle
 10
217.4290215891
 20
45.2714807277
 30
0.0
 40
82.84358130783622
100
AcDbArc
 50
75.38651829350002
 51
86.8305161072
  0
SPLINE
  5
29F
330
1F
100
AcDbEntity
  8
0
  6
Continuous
370
    15
100
AcDbSpline
210
0.0
220
0.0
230
1.0
 70
     8
 71
     3
 72
     9
 73
     5
 74
     0
 42
0.000000001
 43
0.00000001
 40
0.0
 40
0.0
 40
0.0
 40
0.0
 40
0.5362419205887229
 40
1.0
 40
1.0
 40
1.0
 40
1.0
 10
220.6445621977146
 20
161.695683305072
 30
0.0
 10
220.6132683882173
 20
160.7583721866778
 30
0.0
 10
220.5549107546646
 20
159.0104463300698
 30
0.0
 10
220.3039163344731
 20
157.7812058738017
 30
0.0
 10
220.1875156442221
 20
157.2111356806682
 30
0.0
  0
ARC
  5
2A0
330
1F
100
AcDbEntity
  8
0
  6
Continuous
370
    15
100
AcDbCircle
 10
217.9858609972
 20
159.7638211095
 30
0.0
 40
3.286454566313727
100
AcDbArc
 50
17.3676728845
 51
36.0028590073
  0
LINE
  5
2A1
330
1F
100
AcDbEntity
  8
0
  6
Continuous
370
    15
100
AcDbLine
 10
221.1224824841
 20
160.7448355153
 30
0.0
 11
221.0611148457
 21
157.1545760003
 31
0.0
  0
ARC
  5
2A2
330
1F
100
AcDbEntity
  8
0
  6
Continuous
370
    15
100
AcDbCircle
 10
223.8666020216
 20
163.7198497857
 30
0.0
 40
4.989480200037478
100
AcDbArc
 50
310.905727276
 51
324.9159368310999
  0
SPLINE
  5
2A3
330
1F
100
AcDbEntity
  8
0
  6
Continuous
370
    15
100
AcDbSpline
210
0.0
220
0.0
230
1.0
 70
     8
 71
     3
 72
     9
 73
     5
 74
     0
 42
0.000000001
 43
0.00000001
 40
0.0
 40
0.0
 40
0.0
 40
0.0
 40
0.5654788167472311
 40
1.0
 40
1.0
 40
1.0
 40
1.0
 10
227.9495416859682
 20
160.8520080251429
 30
0.0
 10
227.982597656823
 20
159.8984329339757
 30
0.0
 10
228.0410542601046
 20
158.2121184993301
 30
0.0
 10
228.1976661391519
 20
157.0138784571178
 30
0.0
 10
228.265717318147
 20
156.4932177761549
 30
0.0
  0
LINE
  5
2A4
330
1F
100
AcDbEntity
  8
0
  6
Continuous
370
    15
100
AcDbLine
 10
227.1337953115
 20
159.9488604364
 30
0.0
 11
227.1667278091
 21
156.6212200863
 31
0.0
  0
LWPOLYLINE
  5
2A5
330
1F
100
AcDbEntity
  8
0
  6
Continuous
370
    15
100
AcDbPolyline
 90
       28
 70
   128
 43
0.0
 10
181.5091033185
 20
152.4419439579
 10
181.9521669949
 20
152.6605062838
 10
183.5777551586
 20
153.3600627907
 10
185.4384389425
 20
154.0192106783
 10
187.5193209107
 20
154.6326725286
 10
189.8037415648
 20
155.195537311
 10
192.2734115923
 20
155.7032984663
 10
194.9085590149
 20
156.1518910282
 10
197.6880865822
 20
156.5377234409
 10
200.5897403414
 20
156.8577064842
 10
203.5902903135
 20
157.1092783422
 10
206.6657130326
 20
157.2904258154
 10
209.791386891
 20
157.3996978186
 10
212.9422870184
 20
157.4362188801
 10
216.0931871458
 20
157.3996978186
 10
219.2188610042
 20
157.2904258154
 10
222.2942837233
 20
157.1092783422
 10
225.2948336954
 20
156.8577064842
 10
228.1964874546
 20
156.5377234409
 10
230.9760150219
 20
156.1518910282
 10
233.6111624444
 20
155.7032984663
 10
236.0808324719
 20
155.195537311
 10
238.3652531261
 20
154.6326725286
 10
240.4461350943
 20
154.0192106783
 10
242.3068188781
 20
153.3600627907
 10
243.9324070419
 20
152.6605062838
 10
245.3098852838
 20
151.9261425383
 10
246.078561684
 20
151.4245995956
  0
SPLINE
  5
2A6
330
1F
100
AcDbEntity
  8
0
  6
Continuous
370
    15
100
AcDbSpline
210
0.0
220
0.0
230
1.0
 70
     8
 71
     3
 72
     9
 73
     5
 74
     0
 42
0.000000001
 43
0.00000001
 40
0.0
 40
0.0
 40
0.0
 40
0.0
 40
0.5569604724193028
 40
1.0
 40
1.0
 40
1.0
 40
1.0
 10
199.2431559319194
 20
161.0527822665228
 30
0.0
 10
199.1597015657983
 20
160.1013246768848
 30
0.0
 10
199.0098626270338
 20
158.3930210597445
 30
0.0
 10
198.1592171658824
 20
157.0890952598922
 30
0.0
 10
197.7823476026352
 20
156.5114045895254
 30
0.0
  0
ARC
  5
2A7
330
1F
100
AcDbEntity
  8
0
  6
Continuous
370
    15
100
AcDbCircle
 10
186.5184666552
 20
89.5240194638
 30
0.0
 40
72.65178335922491
100
AcDbArc
 50
77.5519601436
 51
79.9128294421
  0
LINE
  5
2A8
330
1F
100
AcDbEntity
  8
0
  6
Continuous
370
    15
100
AcDbLine
 10
202.1788597758
 20
160.4678966667
 30
0.0
 11
202.1691926474
 21
156.9645435034
 31
0.0
  0
SPLINE
  5
2A9
330
1F
100
AcDbEntity
  8
0
  6
Continuous
370
    15
100
AcDbSpline
210
0.0
220
0.0
230
1.0
 70
     8
 71
     3
 72
    10
 73
     6
 74
     0
 42
0.000000001
 43
0.00000001
 40
0.0
 40
0.0
 40
0.0
 40
0.0
 40
0.4071191810453176
 40
0.7034730843392712
 40
1.0
 40
1.0
 40
1.0
 40
1.0
 10
218.0899220238026
 20
157.3309781650105
 30
0.0
 10
218.221617770213
 20
157.8361858439482
 30
0.0
 10
218.4491786841544
 20
158.7091488991933
 30
0.0
 10
218.4842540345073
 20
160.2987173589559
 30
0.0
 10
218.4877289127557
 20
161.3200421464364
 30
0.0
 10
218.4894668588932
 20
161.8308535598558
 30
0.0
  0
SPLINE
  5
2AA
330
1F
100
AcDbEntity
  8
0
  6
Continuous
370
    15
100
AcDbSpline
210
0.0
220
0.0
230
1.0
 70
     8
 71
     3
 72
    10
 73
     6
 74
     0
 42
0.000000001
 43
0.00000001
 40
0.0
 40
0.0
 40
0.0
 40
0.0
 40
0.2863876247398351
 40
0.5810991434940558
 40
1.0
 40
1.0
 40
1.0
 40
1.0
 10
209.1389481628831
 20
161.9069077688709
 30
0.0
 10
209.1427934859257
 20
161.4327231041237
 30
0.0
 10
209.1505958968313
 20
160.4705715349247
 30
0.0
 10
209.2050823768869
 20
158.9340704565933
 30
0.0
 10
209.4341301295942
 20
158.0508069203007
 30
0.0
 10
209.5685844960208
 20
157.5323183616648
 30
0.0
  0
SPLINE
  5
2AB
330
1F
100
AcDbEntity
  8
0
  6
Continuous
370
    15
100
AcDbSpline
210
0.0
220
0.0
230
1.0
 70
     8
 71
     3
 72
    16
 73
    12
 74
     0
 42
0.000000001
 43
0.00000001
 40
0.0
 40
0.0
 40
0.0
 40
0.0
 40
0.0723680316833062
 40
0.2565465581805438
 40
0.360302617710958
 40
0.4211947661302564
 40
0.4848818319760588
 40
0.5483527644582661
 40
0.6490822558522718
 40
0.7489613508341056
 40
1.0
 40
1.0
 40
1.0
 40
1.0
 10
209.5685844960208
 20
157.5323183616648
 30
0.0
 10
209.5594582943174
 20
157.5535283416062
 30
0.0
 10
209.5271056714558
 20
157.6287182732167
 30
0.0
 10
209.4549417879653
 20
157.729675795654
 30
0.0
 10
209.3450152813314
 20
157.8058182537161
 30
0.0
 10
209.2529662133955
 20
157.8349998649953
 30
0.0
 10
209.1671966172392
 20
157.8389027295396
 30
0.0
 10
209.0641691168477
 20
157.8157590425454
 30
0.0
 10
208.9614069773968
 20
157.7596710220697
 30
0.0
 10
208.8216179322356
 20
157.6394715202056
 30
0.0
 10
208.7570587638136
 20
157.5317417585065
 30
0.0
 10
208.7108745890255
 20
157.4546743137764
 30
0.0
  0
SPLINE
  5
2AC
330
1F
100
AcDbEntity
  8
0
  6
Continuous
370
    15
100
AcDbSpline
210
0.0
220
0.0
230
1.0
 70
     8
 71
     3
 72
     9
 73
     5
 74
     0
 42
0.000000001
 43
0.00000001
 40
0.0
 40
0.0
 40
0.0
 40
0.0
 40
0.546972948763787
 40
0.9999999999999999
 40
0.9999999999999999
 40
0.9999999999999999
 40
0.9999999999999999
 10
206.7135192173119
 20
161.7931176365237
 30
0.0
 10
206.6876994667597
 20
160.8420574858713
 30
0.0
 10
206.6404946632853
 20
159.1032874922145
 30
0.0
 10
206.0622896847769
 20
157.823057496337
 30
0.0
 10
205.8003471883531
 20
157.2430786764004
 30
0.0
  0
LINE
  5
2AD
330
1F
100
AcDbEntity
  8
0
  6
Continuous
370
    15
100
AcDbLine
 10
209.1389481629
 20
161.9069077689
 30
0.0
 11
209.1389481629
 21
163.6455742263
 31
0.0
  0
LINE
  5
2AE
330
1F
100
AcDbEntity
  8
0
  6
Continuous
370
    15
100
AcDbLine
 10
218.4894668589
 20
161.8308535599
 30
0.0
 11
218.4894668589
 21
163.5695200173
 31
0.0
  0
SPLINE
  5
2AF
330
1F
100
AcDbEntity
  8
0
  6
Continuous
370
    15
100
AcDbSpline
210
0.0
220
0.0
230
1.0
 70
     8
 71
     3
 72
     9
 73
     5
 74
     0
 42
0.000000001
 43
0.00000001
 40
0.0
 40
0.0
 40
0.0
 40
0.0
 40
0.5752372227252311
 40
1.0
 40
1.0
 40
1.0
 40
1.0
 10
230.4197118336852
 20
160.3993741191661
 30
0.0
 10
230.4244573739263
 20
159.4597450876749
 30
0.0
 10
230.4327070838783
 20
157.8262815453825
 30
0.0
 10
230.5735481086338
 20
156.6787614649118
 30
0.0
 10
230.6333721334632
 20
156.1913376485524
 30
0.0
  0
LINE
  5
2B0
330
1F
100
AcDbEntity
  8
0
  6
Continuous
370
    15
100
AcDbLine
 10
194.4521010573
 20
158.9618531512
 30
0.0
 11
194.4683153833
 21
156.0801470905
 31
0.0
  0
ARC
  5
2B1
330
1F
100
AcDbEntity
  8
0
  6
Continuous
370
    15
100
AcDbCircle
 10
204.8853025649
 20
122.7282159277
 30
0.0
 40
37.70581069462806
100
AcDbArc
 50
102.9224177448
 51
106.0633545464
  0
ARC
  5
2B2
330
1F
100
AcDbEntity
  8
0
  6
Continuous
370
    15
100
AcDbCircle
 10
211.9659240131
 20
81.451771989
 30
0.0
 40
79.61993836646748
100
AcDbArc
 50
93.85594505499999
 51
97.0607857653
  0
ARC
  5
2B3
330
1F
100
AcDbEntity
  8
0
  6
Continuous
370
    15
100
AcDbCircle
 10
215.0833611449
 20
92.0394474459
 30
0.0
 40
68.97029314360944
100
AcDbArc
 50
79.93768252979999
 51
84.9766801004
  0
ARC
  5
2B4
330
1F
100
AcDbEntity
  8
0
  6
Continuous
370
    15
100
AcDbCircle
 10
223.578804786
 20
132.0647028874
 30
0.0
 40
28.02138672434705
100
AcDbArc
 50
68.5362707386
 51
75.8094198096
  0
LINE
  5
2B5
330
1F
100
AcDbEntity
  8
0
  6
Continuous
370
    15
100
AcDbLine
 10
233.8321708793
 20
158.1427894298
 30
0.0
 11
233.8270690943
 21
155.6250896301
 31
0.0
  0
ARC
  5
2B6
330
1F
100
AcDbEntity
  8
0
  6
Continuous
370
    15
100
AcDbCircle
 10
224.6245451303
 20
186.9389921867
 30
0.0
 40
30.23246045475618
100
AcDbArc
 50
287.7317493203
 51
291.9414926666
  0
SPLINE
  5
2B7
330
1F
100
AcDbEntity
  8
0
  6
Continuous
370
    15
100
AcDbSpline
210
0.0
220
0.0
230
1.0
 70
     8
 71
     3
 72
     9
 73
     5
 74
     0
 42
0.000000001
 43
0.00000001
 40
0.0
 40
0.0
 40
0.0
 40
0.0
 40
0.6601235089882072
 40
1.0
 40
1.0
 40
1.0
 40
1.0
 10
235.9211944694217
 20
158.8963928268124
 30
0.0
 10
235.9701414790075
 20
157.9299788830502
 30
0.0
 10
236.0442897390213
 20
156.4659892953389
 30
0.0
 10
236.4664133927578
 20
155.3978535323818
 30
0.0
 10
236.6098832989629
 20
155.0348192973437
 30
0.0
  0
SPLINE
  5
2B8
330
1F
100
AcDbEntity
  8
0
  6
Continuous
370
    15
100
AcDbSpline
210
0.0
220
0.0
230
1.0
 70
     8
 71
     3
 72
     9
 73
     5
 74
     0
 42
0.000000001
 43
0.00000001
 40
0.0
 40
0.0
 40
0.0
 40
0.0
 40
0.579524528801014
 40
1.0
 40
1.0
 40
1.0
 40
1.0
 10
196.6821417863067
 20
160.6353364485925
 30
0.0
 10
196.6347757108798
 20
159.6779493446468
 30
0.0
 10
196.5530430609697
 20
158.025927633113
 30
0.0
 10
195.7646582994023
 20
156.7445085497059
 30
0.0
 10
195.4331618452962
 20
156.2057032568069
 30
0.0
  0
ARC
  5
2B9
330
1F
100
AcDbEntity
  8
0
  6
Continuous
370
    15
100
AcDbCircle
 10
211.7830958438
 20
72.5784268119
 30
0.0
 40
89.35861271359242
100
AcDbArc
 50
93.25230415369998
 51
98.06710154139999
  0
ARC
  5
2BA
330
1F
100
AcDbEntity
  8
0
  6
Continuous
370
    15
100
AcDbCircle
 10
204.4892653471
 20
116.2418846095
 30
0.0
 40
45.07471291630656
100
AcDbArc
 50
99.97416277369999
 51
107.5799462646
  0
ARC
  5
2BB
330
1F
100
AcDbEntity
  8
0
  6
Continuous
370
    15
100
AcDbCircle
 10
193.0756361192
 20
148.0075419835
 30
0.0
 40
11.27866022825293
100
AcDbArc
 50
110.4975115986
 51
129.7308873261
  0
LWPOLYLINE
  5
2BC
330
1F
100
AcDbEntity
  8
0
  6
Continuous
370
    15
100
AcDbPolyline
 90
        7
 70
   128
 43
0.0
 10
192.0390535797
 20
161.3064261752
 10
190.3267481084
 20
160.7649125901
 10
188.7709383572
 20
160.160876043
 10
187.4551024939
 20
159.5197654794
 10
186.392306974
 20
158.8479461488
 10
185.5931018198
 20
158.1520873776
 10
185.0654237623
 20
157.4390982105
  0
SPLINE
  5
2BD
330
1F
100
AcDbEntity
  8
0
  6
Continuous
370
    15
100
AcDbSpline
210
0.0
220
0.0
230
1.0
 70
     8
 71
     3
 72
     9
 73
     5
 74
     0
 42
0.000000001
 43
0.00000001
 40
0.0
 40
0.0
 40
0.0
 40
0.0
 40
0.6510491003187564
 40
1.0
 40
1.0
 40
1.0
 40
1.0
 10
190.8750679994519
 20
159.2114479661631
 30
0.0
 10
190.7968211565432
 20
158.2452324382238
 30
0.0
 10
190.6766353781275
 20
156.7611423327829
 30
0.0
 10
189.8589978783339
 20
155.5562179050645
 30
0.0
 10
189.5736825371678
 20
155.1357584419643
 30
0.0
  0
ARC
  5
2BE
330
1F
100
AcDbEntity
  8
0
  6
Continuous
370
    15
100
AcDbCircle
 10
183.9704838582
 20
34.5026984717
 30
0.0
 40
124.8997417236714
100
AcDbArc
 50
85.1860622586
 51
86.83101585199998
  0
ARC
  5
2BF
330
1F
100
AcDbEntity
  8
0
  6
Continuous
370
    15
100
AcDbCircle
 10
234.2832380172
 20
150.3600746997
 30
0.0
 40
8.518195326323022
100
AcDbArc
 50
43.6829587755
 51
67.56499200389999
  0
ARC
  5
2C0
330
1F
100
AcDbEntity
  8
0
  6
Continuous
370
    15
100
AcDbCircle
 10
222.8928252204
 20
122.0278599323
 30
0.0
 40
39.10277641144234
100
AcDbArc
 50
70.53793232429999
 51
78.9018766384
  0
ARC
  5
2C1
330
1F
100
AcDbEntity
  8
0
  6
Continuous
370
    15
100
AcDbCircle
 10
214.6713105657
 20
77.929169123
 30
0.0
 40
83.97921548384075
100
AcDbArc
 50
80.902597502
 51
85.92123668379999
  0
LWPOLYLINE
  5
2C2
330
1F
100
AcDbEntity
  8
0
  6
Continuous
370
    15
100
AcDbPolyline
 90
        7
 70
   128
 43
0.0
 10
240.8191502745
 20
157.4390982105
 10
240.2708713616
 20
158.1738156881
 10
239.4343108589
 20
158.8901025784
 10
238.3182939793
 20
159.580403236
 10
236.9345963652
 20
160.2374354802
 10
235.2978099788
 20
160.8542690543
 10
233.8455204571
 20
161.3064261752
  0
SPLINE
  5
2C3
330
1F
100
AcDbEntity
  8
0
  6
Continuous
370
    15
100
AcDbSpline
210
0.0
220
0.0
230
1.0
 70
     8
 71
     3
 72
     9
 73
     5
 74
     0
 42
0.000000001
 43
0.00000001
 40
0.0
 40
0.0
 40
0.0
 40
0.0
 40
0.7033635726294978
 40
1.0
 40
1.0
 40
1.0
 40
1.0
 10
237.5340812558825
 20
158.2335535911509
 30
0.0
 10
237.5623689768412
 20
157.2804531564022
 30
0.0
 10
237.6025867561794
 20
155.9253923147019
 30
0.0
 10
237.9900413862955
 20
154.9442951683806
 30
0.0
 10
238.1049745435412
 20
154.6532660159925
 30
0.0
  0
SPLINE
  5
2C4
330
1F
100
AcDbEntity
  8
0
  6
Continuous
370
    15
100
AcDbSpline
210
0.0
220
0.0
230
1.0
 70
     8
 71
     3
 72
     9
 73
     5
 74
     0
 42
0.000000001
 43
0.00000001
 40
0.0
 40
0.0
 40
0.0
 40
0.0
 40
0.7005719226290451
 40
1.0
 40
1.0
 40
1.0
 40
1.0
 10
189.1262248809035
 20
158.5721208872902
 30
0.0
 10
189.0801835808723
 20
157.6021098111659
 30
0.0
 10
189.0144639901437
 20
156.217510964435
 30
0.0
 10
188.2832133490577
 20
155.0751225336873
 30
0.0
 10
188.064256375521
 20
154.7330593622578
 30
0.0
  0
ARC
  5
2C5
330
1F
100
AcDbEntity
  8
0
  6
Continuous
370
    15
100
AcDbCircle
 10
226.4702191424
 20
234.6642554699
 30
0.0
 40
79.65609083372051
100
AcDbArc
 50
278.552756344
 51
280.1030075567
  0
SPLINE
  5
2C6
330
1F
100
AcDbEntity
  8
0
  6
Continuous
370
    15
100
AcDbSpline
210
0.0
220
0.0
230
1.0
 70
     8
 71
     3
 72
     9
 73
     5
 74
     0
 42
0.000000001
 43
0.00000001
 40
0.0
 40
0.0
 40
0.0
 40
0.0
 40
0.4475281403177063
 40
1.0
 40
1.0
 40
1.0
 40
1.0
 10
240.8617359305318
 20
153.8338641017486
 30
0.0
 10
240.7400302164658
 20
154.1678595877146
 30
0.0
 10
240.4680792415404
 20
154.9141712849609
 30
0.0
 10
240.4521589766329
 20
155.770317445347
 30
0.0
 10
240.4433634782727
 20
156.2433141067354
 30
0.0
  0
LINE
  5
2C7
330
1F
100
AcDbEntity
  8
0
  6
Continuous
370
    15
100
AcDbLine
 10
238.316673478
 20
155.8939925111
 30
0.0
 11
238.319560578
 21
154.5985033415
 31
0.0
  0
LINE
  5
2C8
330
1F
100
AcDbEntity
  8
0
  6
Continuous
370
    15
100
AcDbLine
 10
185.8665139134
 20
156.6814530716
 30
0.0
 11
185.3793726022
 21
153.9862756949
 31
0.0
  0
ARC
  5
2C9
330
1F
100
AcDbEntity
  8
0
  6
Continuous
370
    15
100
AcDbCircle
 10
192.2102959131
 20
22.8051094102
 30
0.0
 40
134.0265606594644
100
AcDbArc
 50
91.44759245799999
 51
92.71295321610002
  0
ARC
  5
2CA
330
1F
100
AcDbEntity
  8
0
  6
Continuous
370
    15
100
AcDbCircle
 10
236.9927321082
 20
138.4973037721
 30
0.0
 40
17.4469940056336
100
AcDbArc
 50
85.6480042967
 51
87.47518278110002
  0
SPLINE
  5
2CB
330
1F
100
AcDbEntity
  8
0
  6
Continuous
370
    15
100
AcDbSpline
210
0.0
220
0.0
230
1.0
 70
     8
 71
     3
 72
     9
 73
     5
 74
     0
 42
0.000000001
 43
0.00000001
 40
0.0
 40
0.0
 40
0.0
 40
0.0
 40
0.2061974368245988
 40
1.0
 40
1.0
 40
1.0
 40
1.0
 10
241.0607278997596
 20
153.760904873276
 30
0.0
 10
241.0233074095757
 20
153.8904186324525
 30
0.0
 10
240.8418284796717
 20
154.5185242053003
 30
0.0
 10
240.829185948296
 20
155.1774080602213
 30
0.0
 10
240.8191502744849
 20
155.7004317530925
 30
0.0
  0
SPLINE
  5
2CC
330
1F
100
AcDbEntity
  8
0
  6
Continuous
370
    15
100
AcDbSpline
210
0.0
220
0.0
230
1.0
 70
     8
 71
     3
 72
     9
 73
     5
 74
     0
 42
0.000000001
 43
0.00000001
 40
0.0
 40
0.0
 40
0.0
 40
0.0
 40
0.7871748960879482
 40
1.0
 40
1.0
 40
1.0
 40
1.0
 10
185.0654237622912
 20
155.7004317530925
 30
0.0
 10
185.0566463002757
 20
155.19217362141
 30
0.0
 10
185.0454957134631
 20
154.5464999163562
 30
0.0
 10
184.8688626010789
 20
153.9306600880726
 30
0.0
 10
184.8312706405814
 20
153.7995939126249
 30
0.0
  0
LWPOLYLINE
  5
2CD
330
1F
100
AcDbEntity
  8
0
  6
Continuous
370
    15
100
AcDbPolyline
 90
        7
 70
   128
 43
0.0
 10
241.9637997354
 20
157.2193478993
 10
242.932516774
 20
157.218867137
 10
243.8533638323
 20
157.1410237787
 10
244.6364198531
 20
156.9934192079
 10
245.2052158023
 20
156.7904670434
 10
245.5042150522
 20
156.5519855554
 10
245.5422875191
 20
156.4266240221
  0
LWPOLYLINE
  5
2CE
330
1F
100
AcDbEntity
  8
0
  6
Continuous
370
    15
100
AcDbPolyline
 90
        7
 70
   128
 43
0.0
 10
183.9207743014
 20
157.2193478993
 10
182.9520572627
 20
157.218867137
 10
182.0312102045
 20
157.1410237787
 10
181.2481541837
 20
156.9934192079
 10
180.6793582345
 20
156.7904670434
 10
180.3803589846
 20
156.5519855554
 10
180.3422865177
 20
156.4266240221
  0
ARC
  5
2CF
330
1F
100
AcDbEntity
  8
0
  6
Continuous
370
    15
100
AcDbCircle
 10
184.1936448723
 20
158.8890390125
 30
0.0
 40
1.6918412343341
100
AcDbArc
 50
260.7184427492
 51
301.0164466015
  0
ARC
  5
2D0
330
1F
100
AcDbEntity
  8
0
  6
Continuous
370
    15
100
AcDbCircle
 10
241.6909291644
 20
158.8890390125
 30
0.0
 40
1.6918412343341
100
AcDbArc
 50
238.9835533985
 51
279.2815572508
  0
LWPOLYLINE
  5
2D1
330
1F
100
AcDbEntity
  8
0
  6
Continuous
370
    15
100
AcDbPolyline
 90
        9
 70
   128
 43
0.0
 10
249.5956268812
 20
98.9341885354
 10
249.5962266529
 20
98.9449098119
 10
249.6053461636
 20
98.955369194
 10
249.622597983
 20
98.9651177975
 10
249.647237053
 20
98.9737374714
 10
249.6782128418
 20
98.9808582733
 10
249.7141879703
 20
98.9861746799
 10
249.7536238933
 20
98.9894586034
 10
249.7948293293
 20
98.9905691534
  0
ARC
  5
2D2
330
1F
100
AcDbEntity
  8
0
  6
Continuous
370
    15
100
AcDbCircle
 10
247.1973711312
 20
98.0847024676
 30
0.0
 40
2.544259660824611
100
AcDbArc
 50
340.4953475774
 51
19.5046524226
  0
LWPOLYLINE
  5
2D3
330
1F
100
AcDbEntity
  8
0
  6
Continuous
370
    15
100
AcDbPolyline
 90
        9
 70
   128
 43
0.0
 10
249.7948293293
 20
97.1788357818
 10
249.7536238933
 20
97.1799463318
 10
249.7141879703
 20
97.1832302553
 10
249.6782128418
 20
97.1885466619
 10
249.647237053
 20
97.1956674638
 10
249.622597983
 20
97.2042871377
 10
249.6053461636
 20
97.2140357412
 10
249.5962266529
 20
97.2244951233
 10
249.5956268812
 20
97.2352163998
  0
LINE
  5
2D4
330
1F
100
AcDbEntity
  8
0
  6
Continuous
370
    15
100
AcDbLine
 10
250.3597956801
 20
97.1788357818
 30
0.0
 11
249.7948293293
 21
97.1788357818
 31
0.0
  0
LWPOLYLINE
  5
2D5
330
1F
100
AcDbEntity
  8
0
  6
Continuous
370
    15
100
AcDbPolyline
 90
        9
 70
   128
 43
0.0
 10
250.5588267649
 20
97.121978198
 10
250.558584621
 20
97.1327600367
 10
250.5497184301
 20
97.1432950463
 10
250.5326156224
 20
97.1531262075
 10
250.5080138052
 20
97.1618269926
 10
250.4769784118
 20
97.169019927
 10
250.4408617223
 20
97.1743929187
 10
250.4012283588
 20
97.1777129385
 10
250.3597956801
 20
97.1788357818
  0
LWPOLYLINE
  5
2D6
330
1F
100
AcDbEntity
  8
0
  6
Continuous
370
    15
100
AcDbPolyline
 90
        3
 70
   128
 43
0.0
 10
250.5588267649
 20
99.0474267373
 10
250.0937428976
 20
99.8891971668
 10
249.4377602542
 20
100.6327274548
  0
LWPOLYLINE
  5
2D7
330
1F
100
AcDbEntity
  8
0
  6
Continuous
370
    15
100
AcDbPolyline
 90
        3
 70
   128
 43
0.0
 10
195.0947341228
 20
106.7088737412
 10
193.9156313146
 20
106.5383302766
 10
192.2075223828
 20
106.2648156994
  0
LWPOLYLINE
  5
2D8
330
1F
100
AcDbEntity
  8
0
  6
Continuous
370
    15
100
AcDbPolyline
 90
       41
 70
   128
 43
0.0
 10
176.6632345224
 20
100.8319698614
 10
176.420833608
 20
100.6076704469
 10
175.7123243714
 20
99.7773449079
 10
175.2850671018
 20
98.9342325862
 10
175.1422879005
 20
98.0847024676
 10
175.2850671018
 20
97.235172349
 10
175.7123243714
 20
96.3920600273
 10
176.420833608
 20
95.5617344883
 10
177.4052452947
 20
94.750468782
 10
178.6581163014
 20
93.9643914527
 10
180.1699843908
 20
93.2094406196
 10
181.9294315482
 20
92.4913193843
 10
183.9231622125
 20
91.8154536478
 10
186.1361168976
 20
91.1869482401
 10
188.5515765006
 20
90.6105512466
 10
191.1512945498
 20
90.0906178504
 10
193.9156313146
 20
89.6310746586
 10
196.8237046803
 20
89.2353951156
 10
199.8535447473
 20
88.9065657568
 10
202.9822624008
 20
88.6470731923
 10
206.1862225364
 20
88.4588756637
 10
209.4412214773
 20
88.3433962949
 10
212.7226686698
 20
88.3015076652
 10
216.0057750715
 20
88.3335250602
 10
219.2657386603
 20
88.4392074359
 10
222.4779321531
 20
88.6177564545
 10
225.6180883104
 20
88.8678222695
 10
228.662486812
 20
89.1875170241
 10
231.5881267841
 20
89.5744244932
 10
234.3729098047
 20
90.0256227409
 10
236.9957954342
 20
90.5377024409
 10
239.4369688536
 20
91.1067962828
 10
241.6779917384
 20
91.7286035592
 10
243.7019307817
 20
92.3984282505
 10
245.493497392
 20
93.1112093966
 10
247.0391613151
 20
93.861562074
 10
248.3272400404
 20
94.6438186146
 10
249.3480031098
 20
95.4520691013
 10
250.0937428976
 20
96.2802077684
 10
250.5588267649
 20
97.121978198
 10
250.5588267649
 20
97.121978198
  0
LWPOLYLINE
  5
2D9
330
1F
100
AcDbEntity
  8
0
  6
Continuous
370
    15
100
AcDbPolyline
 90
        9
 70
   128
 43
0.0
 10
250.3597956801
 20
98.9905691534
 10
250.4012283588
 20
98.9916919967
 10
250.4408617223
 20
98.9950120165
 10
250.4769784118
 20
99.0003850082
 10
250.5080138052
 20
99.0075779426
 10
250.5326156224
 20
99.0162787278
 10
250.5497184301
 20
99.0261098889
 10
250.558584621
 20
99.0366448985
 10
250.5588267649
 20
99.0474267373
  0
LINE
  5
2DA
330
1F
100
AcDbEntity
  8
0
  6
Continuous
370
    15
100
AcDbLine
 10
250.3597956801
 20
98.9905691534
 30
0.0
 11
249.7948293293
 21
98.9905691534
 31
0.0
  0
LWPOLYLINE
  5
2DB
330
1F
100
AcDbEntity
  8
0
  6
Continuous
370
    15
100
AcDbPolyline
 90
       71
 70
   128
 43
0.0
 10
247.9422871674
 20
98.0847024676
 10
247.8013855124
 20
98.8967151091
 10
247.3798242117
 20
99.702189793
 10
246.6809858287
 20
100.4946415315
 10
245.7105067278
 20
101.2676899496
 10
244.4761988426
 20
102.0151105675
 10
242.9879956598
 20
102.7308862034
 10
241.2578814382
 20
103.4092530127
 10
239.2997887636
 20
104.0447501432
 10
237.1294793392
 20
104.6322602302
 10
234.7644303645
 20
105.167053026
 10
232.2236817981
 20
105.6448234845
 10
229.5276910717
 20
106.0617235787
 10
226.6981635893
 20
106.4143979761
 10
223.7578813637
 20
106.7000062139
 10
220.7305195461
 20
106.9162496962
 10
217.6404513138
 20
107.061386157
 10
214.5125561346
 20
107.1342479791
 10
211.3720179022
 20
107.1342479791
 10
208.244122723
 20
107.061386157
 10
205.1540544907
 20
106.9162496962
 10
202.1266926731
 20
106.7000062139
 10
199.1864104474
 20
106.4143979761
 10
196.3568829651
 20
106.0617235787
 10
193.6608922387
 20
105.6448234845
 10
191.1201436723
 20
105.167053026
 10
188.7550946976
 20
104.6322602302
 10
186.5847852732
 20
104.0447501432
 10
184.6266925986
 20
103.4092530127
 10
182.896578377
 20
102.7308862034
 10
181.4083751942
 20
102.0151105675
 10
180.174067309
 20
101.2676899496
 10
179.203588208
 20
100.4946415315
 10
178.5047498251
 20
99.702189793
 10
178.0831885243
 20
98.8967151091
 10
177.9422868694
 20
98.0847024676
 10
178.0831885243
 20
97.2726898262
 10
178.5047498251
 20
96.4672151422
 10
179.203588208
 20
95.6747634037
 10
180.174067309
 20
94.9017149856
 10
181.4083751942
 20
94.1542943677
 10
182.896578377
 20
93.4385187318
 10
184.6266925986
 20
92.7601519225
 10
186.5847852732
 20
92.1246547921
 10
188.7550946976
 20
91.537144705
 10
191.1201436723
 20
91.0023519092
 10
193.6608922387
 20
90.5245814508
 10
196.3568829651
 20
90.1076813565
 10
199.1864104474
 20
89.7550069591
 10
202.1266926731
 20
89.4693987213
 10
205.1540544907
 20
89.253155239
 10
208.244122723
 20
89.1080187782
 10
211.3720179022
 20
89.0351569561
 10
214.5125561346
 20
89.0351569561
 10
217.6404513138
 20
89.1080187782
 10
220.7305195461
 20
89.253155239
 10
223.7578813637
 20
89.4693987213
 10
226.6981635893
 20
89.7550069591
 10
229.5276910717
 20
90.1076813565
 10
232.2236817981
 20
90.5245814508
 10
234.7644303645
 20
91.0023519092
 10
237.1294793392
 20
91.537144705
 10
239.2997887636
 20
92.1246547921
 10
241.2578814382
 20
92.7601519225
 10
242.9879956598
 20
93.4385187318
 10
244.4761988426
 20
94.1542943677
 10
245.7105067278
 20
94.9017149856
 10
246.6809858287
 20
95.6747634037
 10
247.3798242117
 20
96.4672151422
 10
247.8013855124
 20
97.2726898262
 10
247.9422871674
 20
98.0847024676
  0
ARC
  5
2DC
330
1F
100
AcDbEntity
  8
0
  6
Continuous
370
    15
100
AcDbCircle
 10
247.767085378
 20
98.6721316696
 30
0.0
 40
2.988764555885303
100
AcDbArc
 50
339.0798127491
 51
341.7274149266
  0
ARC
  5
2DD
330
1F
100
AcDbEntity
  8
0
  6
Continuous
370
    15
100
AcDbCircle
 10
249.8324989179
 20
98.456686421
 30
0.0
 40
0.6654874259502322
100
AcDbArc
 50
260.7757573034
 51
270.3175738424
  0
LINE
  5
2DE
330
1F
100
AcDbEntity
  8
0
  6
Continuous
370
    15
100
AcDbLine
 10
250.4058700705
 20
97.7912092174
 30
0.0
 11
249.8361875022
 21
97.7912092174
 31
0.0
  0
LWPOLYLINE
  5
2DF
330
1F
100
AcDbEntity
  8
0
  6
Continuous
370
    15
100
AcDbPolyline
 90
        9
 70
   128
 43
0.0
 10
250.6051432992
 20
97.7350399951
 10
250.6043870653
 20
97.7457342143
 10
250.5951557959
 20
97.7561599708
 10
250.5778406466
 20
97.7658719959
 10
250.5531866754
 20
97.7744557542
 10
250.5222406889
 20
97.781544678
 10
250.4863251651
 20
97.7868361366
 10
250.4469749237
 20
97.7901041511
 10
250.4058700705
 20
97.7912092174
  0
LWPOLYLINE
  5
2E0
330
1F
100
AcDbEntity
  8
0
  6
Continuous
370
    15
100
AcDbPolyline
 90
        9
 70
   128
 43
0.0
 10
250.3597956801
 20
97.6617996737
 10
250.4012283588
 20
97.6606768304
 10
250.4408617223
 20
97.6573568106
 10
250.4769784118
 20
97.6519838189
 10
250.5080138052
 20
97.6447908845
 10
250.5326156224
 20
97.6360900994
 10
250.5497184301
 20
97.6262589382
 10
250.558584621
 20
97.6157239286
 10
250.5597953404
 20
97.6100358923
  0
LINE
  5
2E1
330
1F
100
AcDbEntity
  8
0
  6
Continuous
370
    15
100
AcDbLine
 10
250.3597956801
 20
97.6617996737
 30
0.0
 11
249.7948293293
 21
97.6617996737
 31
0.0
  0
ARC
  5
2E2
330
1F
100
AcDbEntity
  8
0
  6
Continuous
370
    15
100
AcDbCircle
 10
249.7922866775
 20
98.3553716193
 30
0.0
 40
0.693576606352536
100
AcDbArc
 50
262.9278260655
 51
270.2100468002999
  0
ARC
  5
2E3
330
1F
100
AcDbEntity
  8
0
  6
Continuous
370
    15
100
AcDbCircle
 10
249.8333917833
 20
99.4443181412
 30
0.0
 40
0.6871868270131684
100
AcDbArc
 50
262.3815698092
 51
270.2331001242
  0
LINE
  5
2E4
330
1F
100
AcDbEntity
  8
0
  6
Continuous
370
    15
100
AcDbLine
 10
249.8361875022
 20
98.7571370012
 30
0.0
 11
250.4058700705
 21
98.7571370012
 31
0.0
  0
LWPOLYLINE
  5
2E5
330
1F
100
AcDbEntity
  8
0
  6
Continuous
370
    15
100
AcDbPolyline
 90
        9
 70
   128
 43
0.0
 10
250.4058700705
 20
98.7571370012
 10
250.4469749237
 20
98.7560319349
 10
250.4863251651
 20
98.7527639204
 10
250.5222406889
 20
98.7474724618
 10
250.5531866754
 20
98.740383538
 10
250.5778406466
 20
98.7317997797
 10
250.5951557959
 20
98.7220877545
 10
250.6043870653
 20
98.7116619981
 10
250.6058697308
 20
98.7053732199
  0
ARC
  5
2E6
330
1F
100
AcDbEntity
  8
0
  6
Continuous
370
    15
100
AcDbCircle
 10
179.9550536355
 20
154.3973763469
 30
0.0
 40
2.741637166664159
100
AcDbArc
 50
143.3923408525
 51
217.1687392555
  0
ARC
  5
2E7
330
1F
100
AcDbEntity
  8
0
  6
Continuous
370
    15
100
AcDbCircle
 10
245.9056481011
 20
154.3988067943
 30
0.0
 40
2.762405950468522
100
AcDbArc
 50
322.5642277105
 51
37.8644607837
  0
LWPOLYLINE
  5
2E8
330
1F
100
AcDbEntity
  8
0
  6
Continuous
370
    15
100
AcDbPolyline
 90
       31
 70
   128
 43
0.0
 10
246.8665052856
 20
156.3938047855
 10
246.4670275057
 20
156.7344937511
 10
245.3556392992
 20
157.5009300906
 10
243.9832796062
 20
158.238496588
 10
242.3609939123
 20
158.9412546416
 10
240.5018468107
 20
159.6035457432
 10
238.4208065177
 20
160.2200379989
 10
236.1346275265
 20
160.7857673484
 10
233.6617164964
 20
161.2961795058
 10
231.0219869668
 20
161.7471641886
 10
228.2366889248
 20
162.1350907918
 10
225.3282495494
 20
162.4568353847
 10
222.3200860153
 20
162.7098081906
 10
219.2364173661
 20
162.8919719054
 10
216.1020726616
 20
163.0018600171
 10
212.9422870184
 20
163.0385883764
 10
209.7825013752
 20
163.0018600171
 10
206.6481566707
 20
162.8919719054
 10
203.5644880215
 20
162.7098081906
 10
200.5563244874
 20
162.4568353847
 10
197.647885112
 20
162.1350907918
 10
194.86258707
 20
161.7471641886
 10
192.2228575403
 20
161.2961795058
 10
189.7499465103
 20
160.7857673484
 10
187.4637675191
 20
160.2200379989
 10
185.3827272261
 20
159.6035457432
 10
183.5235801245
 20
158.9412546416
 10
181.9012944306
 20
158.238496588
 10
180.5289347375
 20
157.5009300906
 10
179.4175465311
 20
156.7344937511
 10
179.3974523152
 20
156.7184373268
  0
LINE
  5
2E9
330
1F
100
AcDbEntity
  8
0
  6
Continuous
370
    15
100
AcDbLine
 10
177.1922853495
 20
207.8621741568
 30
0.0
 11
177.1929484511
 21
207.805884322
 31
0.0
  0
LINE
  5
2EA
330
1F
100
AcDbEntity
  8
0
  6
Continuous
370
    15
100
AcDbLine
 10
248.6922886873
 20
207.8621741568
 30
0.0
 11
248.6918453778
 21
207.9081110493
 31
0.0
  0
LWPOLYLINE
  5
2EB
330
1F
100
AcDbEntity
  8
0
  6
Continuous
370
    15
100
AcDbPolyline
 90
       31
 70
   128
 43
0.0
 10
179.1254353429
 20
156.4758424302
 10
179.4324104393
 20
156.7332434557
 10
180.5433069075
 20
157.4993401643
 10
181.9150593782
 20
158.2365798059
 10
183.5366242284
 20
158.9390259486
 10
185.3949480409
 20
159.6010234585
 10
187.4750663246
 20
160.2172423704
 10
189.7602301742
 20
160.7827210341
 10
192.2320441062
 20
161.2929066101
 10
194.8706038947
 20
161.7436912264
 10
197.6546670029
 20
162.131445242
 10
200.5618164966
 20
162.4530481011
 10
203.5686463768
 20
162.7059080984
 10
206.6509473788
 20
162.8879917865
 10
209.78390255
 20
162.9978307253
 10
212.9422870184
 20
163.0345426936
 10
216.1006714868
 20
162.9978307253
 10
219.233626658
 20
162.8879917865
 10
222.31592766
 20
162.7059080984
 10
225.3227575401
 20
162.4530481011
 10
228.2299070338
 20
162.131445242
 10
231.0139701421
 20
161.7436912264
 10
233.6525299306
 20
161.2929066101
 10
236.1243438626
 20
160.7827210341
 10
238.4095077122
 20
160.2172423704
 10
240.4896259958
 20
159.6010234585
 10
242.3479498083
 20
158.9390259486
 10
243.9695146585
 20
158.2365798059
 10
245.3412671293
 20
157.4993401643
 10
246.4521635974
 20
156.7332434557
 10
246.4603219832
 20
156.7267376776
  0
LWPOLYLINE
  5
2EC
330
1F
100
AcDbEntity
  8
0
  6
Continuous
370
    15
100
AcDbPolyline
 90
       16
 70
   128
 43
0.0
 10
247.7741685415
 20
154.380589453
 10
247.7572631741
 20
154.4938905071
 10
247.4769537056
 20
155.29998139
 10
246.9185922945
 20
156.0963239405
 10
246.086671641
 20
156.8765062973
 10
244.9878935421
 20
157.6342472149
 10
243.6311018372
 20
158.3634456281
 10
242.0272209401
 20
159.0582304277
 10
240.1891664321
 20
159.7130077051
 10
238.131737029
 20
160.3225053455
 10
235.8714953715
 20
160.8818161748
 10
233.426643228
 20
161.3864370086
 10
230.8168613071
 20
161.832304809
 10
228.0631649027
 20
162.2158299483
 10
225.1877232174
 20
162.5339241707
 10
222.6179630215
 20
162.7544707709
  0
ARC
  5
2ED
330
1F
100
AcDbEntity
  8
0
  6
Continuous
370
    15
100
AcDbCircle
 10
181.3443870285
 20
153.8444718831
 30
0.0
 40
3.275521986038768
100
AcDbArc
 50
136.460549672
 51
171.6292883396
  0
ARC
  5
2EE
330
1F
100
AcDbEntity
  8
0
  6
Continuous
370
    15
100
AcDbCircle
 10
182.4180383044
 20
156.423256766
 30
0.0
 40
2.310023984510056
100
AcDbArc
 50
160.0509000051
 51
206.0273723797
  0
ARC
  5
2EF
330
1F
100
AcDbEntity
  8
0
  6
Continuous
370
    15
100
AcDbCircle
 10
243.4615578818
 20
156.4235210537
 30
0.0
 40
2.31461379230236
100
AcDbArc
 50
334.020818531
 51
19.90090908419999
  0
ARC
  5
2F0
330
1F
100
AcDbEntity
  8
0
  6
Continuous
370
    15
100
AcDbCircle
 10
191.5954884461
 20
29.0911062644
 30
0.0
 40
129.4962295677059
100
AcDbArc
 50
92.6199017029
 51
94.2176041294
  0
SPLINE
  5
2F1
330
1F
100
AcDbEntity
  8
0
  6
Continuous
370
    15
100
AcDbSpline
210
0.0
220
0.0
230
1.0
 70
     8
 71
     3
 72
     8
 73
     4
 74
     0
 42
0.000000001
 43
0.00000001
 40
0.0
 40
0.0
 40
0.0
 40
0.0
 40
1.0
 40
1.0
 40
1.0
 40
1.0
 10
185.9112915019149
 20
158.5063003795307
 30
0.0
 10
185.8794996392269
 20
158.4786198291536
 30
0.0
 10
185.7860760878895
 20
158.4570277593978
 30
0.0
 10
185.6762183525368
 20
158.4519802703734
 30
0.0
  0
ARC
  5
2F2
330
1F
100
AcDbEntity
  8
0
  6
Continuous
370
    15
100
AcDbCircle
 10
192.523565309
 20
150.4473890163
 30
0.0
 40
10.42440471060296
100
AcDbArc
 50
113.2855351002
 51
129.3686086337
  0
SPLINE
  5
2F3
330
1F
100
AcDbEntity
  8
0
  6
Continuous
370
    15
100
AcDbSpline
210
0.0
220
0.0
230
1.0
 70
     8
 71
     3
 72
    10
 73
     6
 74
     0
 42
0.000000001
 43
0.00000001
 40
0.0
 40
0.0
 40
0.0
 40
0.0
 40
0.5
 40
0.5
 40
1.0
 40
1.0
 40
1.0
 40
1.0
 10
188.1901152289356
 20
160.1375528594093
 30
0.0
 10
188.2858881669826
 20
160.1334996724344
 30
0.0
 10
188.3704296646505
 20
160.1170182539139
 30
0.0
 10
188.4537868825938
 20
160.0720602740332
 30
0.0
 10
188.4504701109912
 20
160.0445432631105
 30
0.0
 10
188.4026563419747
 20
160.022686480316
 30
0.0
  0
LINE
  5
2F4
330
1F
100
AcDbEntity
  8
0
  6
Continuous
370
    15
100
AcDbLine
 10
188.1901153083
 20
160.1375528647
 30
0.0
 11
188.0897690261
 21
160.1417578776
 31
0.0
  0
ARC
  5
2F5
330
1F
100
AcDbEntity
  8
0
  6
Continuous
370
    15
100
AcDbCircle
 10
197.2944396307
 20
139.433324703
 30
0.0
 40
22.66197620429492
100
AcDbArc
 50
109.0175615267
 51
113.9646203532
  0
ARC
  5
2F6
330
1F
100
AcDbEntity
  8
0
  6
Continuous
370
    15
100
AcDbCircle
 10
228.6511940981
 20
139.6085269399
 30
0.0
 40
22.47643994895364
100
AcDbArc
 50
65.514664659
 51
70.98405956880002
  0
ARC
  5
2F7
330
1F
100
AcDbEntity
  8
0
  6
Continuous
370
    15
100
AcDbCircle
 10
226.8740318786
 20
189.3525370908
 30
0.0
 40
31.31917852453516
100
AcDbArc
 50
290.3310449234
 51
290.7434477042
  0
SPLINE
  5
2F8
330
1F
100
AcDbEntity
  8
0
  6
Continuous
370
    15
100
AcDbSpline
210
0.0
220
0.0
230
1.0
 70
     8
 71
     3
 72
     8
 73
     4
 74
     0
 42
0.000000001
 43
0.00000001
 40
0.0
 40
0.0
 40
0.0
 40
0.0
 40
1.0
 40
1.0
 40
1.0
 40
1.0
 10
237.7378687221896
 20
159.9030862913438
 30
0.0
 10
237.6847242938712
 20
159.9284777109111
 30
0.0
 10
237.691794088931
 20
159.9608433064059
 30
0.0
 10
237.7556852420992
 20
159.9845177810937
 30
0.0
  0
ARC
  5
2F9
330
1F
100
AcDbEntity
  8
0
  6
Continuous
370
    15
100
AcDbCircle
 10
233.8429077777
 20
151.2148694576
 30
0.0
 40
9.521335909246021
100
AcDbArc
 50
48.7636842286
 51
65.85311873769999
  0
SPLINE
  5
2FA
330
1F
100
AcDbEntity
  8
0
  6
Continuous
370
    15
100
AcDbSpline
210
0.0
220
0.0
230
1.0
 70
     8
 71
     3
 72
    10
 73
     6
 74
     0
 42
0.000000001
 43
0.00000001
 40
0.0
 40
0.0
 40
0.0
 40
0.0
 40
0.5
 40
0.5
 40
1.0
 40
1.0
 40
1.0
 40
1.0
 10
240.5831616666857
 20
158.3325629135761
 30
0.0
 10
240.5043664599906
 20
158.3179012854113
 30
0.0
 10
240.3995585209188
 20
158.3140832403006
 30
0.0
 10
240.2177885816108
 20
158.3306179030646
 30
0.0
 10
240.1449560213894
 20
158.3506823794186
 30
0.0
 10
240.1190516206103
 20
158.3748879858029
 30
0.0
  0
ARC
  5
2FB
330
1F
100
AcDbEntity
  8
0
  6
Continuous
370
    15
100
AcDbCircle
 10
228.8037212554
 20
221.8260309775
 30
0.0
 40
64.57689771241192
100
AcDbArc
 50
280.5101393446
 51
282.457288951
  0
LINE
  5
2FC
330
1F
100
AcDbEntity
  8
0
  6
Continuous
370
    15
100
AcDbLine
 10
237.9667867626
 20
160.0636017647
 30
0.0
 11
238.6423905099
 21
160.1670315679
 31
0.0
  0
ARC
  5
2FD
330
1F
100
AcDbEntity
  8
0
  6
Continuous
370
    15
100
AcDbCircle
 10
214.9953280737
 20
122.4803959642
 30
0.0
 40
95.18703372594575
100
AcDbArc
 50
74.65676671489999
 51
91.23587956499999
  0
LWPOLYLINE
  5
2FE
330
1F
100
AcDbEntity
  8
0
  6
Continuous
370
    15
100
AcDbPolyline
 90
       12
 70
   128
 43
0.0
 10
184.8499175812
 20
213.9897971706
 10
185.5781857575
 20
214.2346062976
 10
187.6444664503
 20
214.8467260148
 10
189.9144311155
 20
215.4084434276
 10
192.3698034788
 20
215.9152351039
 10
194.990811562
 20
216.3630216147
 10
197.7563562522
 20
216.7481969414
 10
200.644167764
 20
217.0676593296
 10
203.6309974919
 20
217.3188378038
 10
206.692795893
 20
217.4997104867
 10
209.8049110918
 20
217.60881858
 10
212.9422870184
 20
217.6452866118
  0
LINE
  5
2FF
330
1F
100
AcDbEntity
  8
0
  6
Continuous
370
    15
100
AcDbLine
 10
188.0897690261
 20
160.1417578776
 30
0.0
 11
186.6486758644
 21
159.9573322704
 31
0.0
  0
LWPOLYLINE
  5
300
330
1F
100
AcDbEntity
  8
0
  6
Continuous
370
    15
100
AcDbPolyline
 90
       17
 70
   128
 43
0.0
 10
214.6638720714
 20
115.1545264677
 10
214.7919901599
 20
114.4683563225
 10
214.6385076175
 20
113.7870619471
 10
214.2267909784
 20
113.2143623004
 10
213.6195201728
 20
112.8374455025
 10
212.9091467449
 20
112.713690908
 10
212.203818648
 20
112.8619466956
 10
211.6109156468
 20
113.2596331935
 10
211.2207019654
 20
113.846211692
 10
211.0925838769
 20
114.5323782388
 10
211.2460664193
 20
115.2136726142
 10
211.6577830583
 20
115.7863758592
 10
212.265053864
 20
116.1632926571
 10
212.9754272918
 20
116.2870436533
 10
213.6807553888
 20
116.138791464
 10
214.27365839
 20
115.7411049661
 10
214.6638720714
 20
115.1545264677
  0
LWPOLYLINE
  5
301
330
1F
100
AcDbEntity
  8
0
  6
Continuous
370
    15
100
AcDbPolyline
 90
       17
 70
   128
 43
0.0
 10
183.5647464449
 20
113.9478603163
 10
183.9793228264
 20
114.4618820624
 10
184.4762802775
 20
114.7495446523
 10
184.9799637402
 20
114.7670559436
 10
185.4136918391
 20
114.5117483604
 10
185.7114338035
 20
114.0224894044
 10
185.8278584386
 20
113.3737645097
 10
185.7452445383
 20
112.6643375712
 10
185.4761686827
 20
112.0022122177
 10
185.0615941639
 20
111.4881899895
 10
184.5646348501
 20
111.2005278816
 10
184.0609513874
 20
111.1830165903
 10
183.6272232885
 20
111.4383241735
 10
183.3294831867
 20
111.9275826474
 10
183.213056689
 20
112.5763080242
 10
183.2956705893
 20
113.2857349627
 10
183.5647464449
 20
113.9478603163
  0
LWPOLYLINE
  5
302
330
1F
100
AcDbEntity
  8
0
  6
Continuous
370
    15
100
AcDbPolyline
 90
       10
 70
   128
 43
0.0
 10
185.1254195625
 20
114.7294177633
 10
185.555113172
 20
114.475145826
 10
185.8528551365
 20
113.98588687
 10
185.9692797715
 20
113.3371619754
 10
185.8866658712
 20
112.6277350369
 10
185.6175900156
 20
111.9656096833
 10
185.2030154968
 20
111.4515874551
 10
184.7060561831
 20
111.1639253472
 10
184.2023727203
 20
111.146414056
 10
184.1983382309
 20
111.1474497019
  0
LINE
  5
303
330
1F
100
AcDbEntity
  8
0
  6
Continuous
370
    15
100
AcDbLine
 10
153.2392759527
 20
167.5509688932
 30
0.0
 11
145.6127536202
 21
174.6060653325
 31
0.0
  0
LINE
  5
304
330
1F
100
AcDbEntity
  8
0
  6
Continuous
370
    15
100
AcDbLine
 10
156.0677063371
 20
168.2830205444
 30
0.0
 11
153.2392759527
 21
167.5509688932
 31
0.0
  0
LINE
  5
305
330
1F
100
AcDbEntity
  8
0
  6
Continuous
370
    15
100
AcDbLine
 10
148.4411877299
 20
175.3381179479
 30
0.0
 11
156.0677063371
 21
168.2830205444
 31
0.0
  0
LINE
  5
306
330
1F
100
AcDbEntity
  8
0
  6
Continuous
370
    15
100
AcDbLine
 10
145.6127536202
 20
174.6060653325
 30
0.0
 11
148.4411877299
 21
175.3381179479
 31
0.0
  0
LWPOLYLINE
  5
307
330
1F
100
AcDbEntity
  8
0
  6
Continuous
370
    15
100
AcDbPolyline
 90
        9
 70
   128
 43
0.0
 10
172.5703623796
 20
152.7656953264
 10
172.8923205937
 20
152.3595310593
 10
172.9822565521
 20
151.9678371972
 10
172.8264798129
 20
151.6502430127
 10
172.4487055744
 20
151.4551016772
 10
171.9064448679
 20
151.4121204467
 10
171.2822575773
 20
151.5278450858
 10
170.671164682
 20
151.7846536073
 10
170.166201582
 20
152.1434527245
  0
LINE
  5
308
330
1F
100
AcDbEntity
  8
0
  6
Continuous
370
    15
100
AcDbLine
 10
160.7492563034
 20
163.7010964962
 30
0.0
 11
172.5703623796
 21
152.7656953264
 31
0.0
  0
LWPOLYLINE
  5
309
330
1F
100
AcDbEntity
  8
0
  6
Continuous
370
    15
100
AcDbPolyline
 90
        9
 70
   128
 43
0.0
 10
158.3450917805
 20
163.0788529301
 10
158.0231372918
 20
163.4850167474
 10
157.9332013334
 20
163.8767115091
 10
158.0889780725
 20
164.1943053084
 10
158.4667523111
 20
164.3894461295
 10
159.0090092922
 20
164.4324269102
 10
159.6332003082
 20
164.3167036204
 10
160.2442932034
 20
164.0598941994
 10
160.7492563034
 20
163.7010964962
  0
LINE
  5
30A
330
1F
100
AcDbEntity
  8
0
  6
Continuous
370
    15
100
AcDbLine
 10
170.166201582
 20
152.1434527245
 30
0.0
 11
158.3450917805
 21
163.0788529301
 31
0.0
  0
ARC
  5
30B
330
1F
100
AcDbEntity
  8
0
  6
Continuous
370
    15
100
AcDbCircle
 10
147.2923476112
 20
172.3291403299
 30
0.0
 40
4.832535559928606
100
AcDbArc
 50
47.413994419
 51
99.0218257339
  0
LINE
  5
30C
330
1F
100
AcDbEntity
  8
0
  6
Continuous
370
    15
100
AcDbLine
 10
184.8818470443
 20
144.1392194633
 30
0.0
 11
150.5625058616
 21
175.8871545169
 31
0.0
  0
LWPOLYLINE
  5
30D
330
1F
100
AcDbEntity
  8
0
  6
Continuous
370
    15
100
AcDbPolyline
 90
        9
 70
   128
 43
0.0
 10
184.810282355
 20
143.3682814216
 10
184.9360202158
 20
143.4152831087
 10
185.0325033719
 20
143.483070291
 10
185.0960214342
 20
143.5690412308
 10
185.1241362
 20
143.6698900294
 10
185.1157654727
 20
143.7817421003
 10
185.0712333525
 20
143.9002988373
 10
184.992247885
 20
144.0210040613
 10
184.8818470443
 20
144.1392194633
  0
LINE
  5
30E
330
1F
100
AcDbEntity
  8
0
  6
Continuous
370
    15
100
AcDbLine
 10
184.1031756903
 20
143.1852682677
 30
0.0
 11
184.810282355
 21
143.3682814216
 31
0.0
  0
ARC
  5
30F
330
1F
100
AcDbEntity
  8
0
  6
Continuous
370
    15
100
AcDbCircle
 10
184.1537627883
 20
142.817946833
 30
0.0
 40
0.3707884718430233
100
AcDbArc
 50
97.8413845625
 51
168.9152332511
  0
ARC
  5
310
330
1F
100
AcDbEntity
  8
0
  6
Continuous
370
    15
100
AcDbCircle
 10
180.1239717074
 20
140.7991655565
 30
0.0
 40
1.314690556458789
100
AcDbArc
 50
71.69221988630001
 51
101.5591061879
  0
LINE
  5
311
330
1F
100
AcDbEntity
  8
0
  6
Continuous
370
    15
100
AcDbLine
 10
179.1534271742
 20
141.9041795654
 30
0.0
 11
179.8605357016
 21
142.0871922371
 31
0.0
  0
ARC
  5
312
330
1F
100
AcDbEntity
  8
0
  6
Continuous
370
    15
100
AcDbCircle
 10
178.9008306061
 20
143.4951002714
 30
0.0
 40
1.610848757319983
100
AcDbArc
 50
227.4140539135
 51
279.0217629012
  0
LINE
  5
313
330
1F
100
AcDbEntity
  8
0
  6
Continuous
370
    15
100
AcDbLine
 10
177.8107766713
 20
142.3090917815
 30
0.0
 11
143.4914392138
 21
174.0570277993
 31
0.0
  0
LWPOLYLINE
  5
314
330
1F
100
AcDbEntity
  8
0
  6
Continuous
370
    15
100
AcDbPolyline
 90
        9
 70
   128
 43
0.0
 10
143.7061276937
 20
176.3698403503
 10
143.3289122487
 20
176.2288380833
 10
143.0394646431
 20
176.0254727132
 10
142.8489085937
 20
175.7675614035
 10
142.7645680214
 20
175.4650143019
 10
142.789676478
 20
175.1294585389
 10
142.9232802893
 20
174.773788938
 10
143.160231104
 20
174.4116735388
 10
143.4914392138
 20
174.0570277993
  0
LINE
  5
315
330
1F
100
AcDbEntity
  8
0
  6
Continuous
370
    15
100
AcDbLine
 10
146.5345543528
 20
177.1018910373
 30
0.0
 11
143.7061276937
 21
176.3698403503
 31
0.0
  0
LINE
  5
316
330
1F
100
AcDbEntity
  8
0
  6
Continuous
370
    15
100
AcDbLine
 10
185.0058358813
 20
144.454395986
 30
0.0
 11
150.6864946986
 21
176.2023321808
 31
0.0
  0
ARC
  5
317
330
1F
100
AcDbEntity
  8
0
  6
Continuous
370
    15
100
AcDbCircle
 10
147.4163445932
 20
172.6443355431
 30
0.0
 40
4.832517127281387
100
AcDbArc
 50
47.413924719
 51
99.02191349110001
  0
LINE
  5
318
330
1F
100
AcDbEntity
  8
0
  6
Continuous
370
    15
100
AcDbLine
 10
146.6585469151
 20
177.4170668853
 30
0.0
 11
143.830120256
 21
176.6850161982
 31
0.0
  0
ARC
  5
319
330
1F
100
AcDbEntity
  8
0
  6
Continuous
370
    15
100
AcDbCircle
 10
144.0093955619
 20
175.5252338696
 30
0.0
 40
1.173556426097093
100
AcDbArc
 50
98.7870462529
 51
155.0909623859
  0
LINE
  5
31A
330
1F
100
AcDbEntity
  8
0
  6
Continuous
370
    15
100
AcDbLine
 10
153.2392759527
 20
167.5509688932
 30
0.0
 11
153.363268515
 21
167.8661457053
 31
0.0
  0
LINE
  5
31B
330
1F
100
AcDbEntity
  8
0
  6
Continuous
370
    15
100
AcDbLine
 10
153.363268515
 20
167.8661457053
 30
0.0
 11
145.9758576656
 21
174.7000436312
 31
0.0
  0
LINE
  5
31C
330
1F
100
AcDbEntity
  8
0
  6
Continuous
370
    15
100
AcDbLine
 10
155.8285911287
 20
168.5042181501
 30
0.0
 11
153.363268515
 21
167.8661457053
 31
0.0
  0
LWPOLYLINE
  5
31D
330
1F
100
AcDbEntity
  8
0
  6
Continuous
370
    15
100
AcDbPolyline
 90
        3
 70
   128
 43
0.0
 10
158.4690843428
 20
163.3940295174
 10
158.1471261288
 20
163.8001933346
 10
158.0551598872
 20
164.158908945
  0
LINE
  5
31E
330
1F
100
AcDbEntity
  8
0
  6
Continuous
370
    15
100
AcDbLine
 10
170.290190419
 20
152.4586283475
 30
0.0
 11
158.4690843428
 21
163.3940295174
 31
0.0
  0
ARC
  5
31F
330
1F
100
AcDbEntity
  8
0
  6
Continuous
370
    15
100
AcDbCircle
 10
182.5441859306
 20
135.5776335251
 30
0.0
 40
0.8909105721663657
100
AcDbArc
 50
287.8815418844
 51
330.0481578688999
  0
ARC
  5
320
330
1F
100
AcDbEntity
  8
0
  6
Continuous
370
    15
100
AcDbCircle
 10
186.9320387333
 20
136.2936368505
 30
0.0
 40
0.4831584070145952
100
AcDbArc
 50
221.2999656546
 51
285.4043842208
  0
LINE
  5
321
330
1F
100
AcDbEntity
  8
0
  6
Continuous
370
    15
100
AcDbLine
 10
187.7674867118
 20
136.0108490239
 30
0.0
 11
187.0603800471
 21
135.82783587
 31
0.0
  0
LWPOLYLINE
  5
322
330
1F
100
AcDbEntity
  8
0
  6
Continuous
370
    15
100
AcDbPolyline
 90
        9
 70
   128
 43
0.0
 10
188.4622533525
 20
135.2312747955
 10
188.4510737563
 20
135.4155508063
 10
188.4131503011
 20
135.5857105541
 10
188.3499395753
 20
135.735215461
 10
188.2638723309
 20
135.8583233625
 10
188.158254763
 20
135.9502993889
 10
188.0371455754
 20
136.0076116445
 10
187.9051995183
 20
136.02805566
 10
187.7674867118
 20
136.0108490239
  0
LINE
  5
323
330
1F
100
AcDbEntity
  8
0
  6
Continuous
370
    15
100
AcDbLine
 10
188.1455384845
 20
110.5272838384
 30
0.0
 11
188.4622533525
 21
135.2312747955
 31
0.0
  0
LINE
  5
324
330
1F
100
AcDbEntity
  8
0
  6
Continuous
370
    15
100
AcDbLine
 10
181.0794618631
 20
109.0865415468
 30
0.0
 11
181.3911867047
 21
133.4011480779
 31
0.0
  0
ARC
  5
325
330
1F
100
AcDbEntity
  8
0
  6
Continuous
370
    15
100
AcDbCircle
 10
182.5769478981
 20
133.4551890693
 30
0.0
 40
1.186992011979757
100
AcDbArc
 50
113.1322954469
 51
182.6094458539
  0
LINE
  5
326
330
1F
100
AcDbEntity
  8
0
  6
Continuous
370
    15
100
AcDbLine
 10
182.8177400584
 20
134.7297598394
 30
0.0
 11
182.110631531
 21
134.5467471677
 31
0.0
  0
LINE
  5
327
330
1F
100
AcDbEntity
  8
0
  6
Continuous
370
    15
100
AcDbLine
 10
188.5101214702
 20
116.8265719576
 30
0.0
 11
188.7450531776
 21
135.1513397805
 31
0.0
  0
LWPOLYLINE
  5
328
330
1F
100
AcDbEntity
  8
0
  6
Continuous
370
    15
100
AcDbPolyline
 90
        7
 70
   128
 43
0.0
 10
172.9842868353
 20
152.0008158427
 10
172.95046865
 20
151.9654195353
 10
172.5726944114
 20
151.7702791641
 10
172.0304374302
 20
151.7272979336
 10
171.4062464143
 20
151.8430207735
 10
170.795153519
 20
152.0998301945
 10
170.290190419
 20
152.4586283475
  0
ARC
  5
329
330
1F
100
AcDbEntity
  8
0
  6
Continuous
370
    15
100
AcDbCircle
 10
184.7165319635
 20
144.0166300953
 30
0.0
 40
0.5247244342738464
100
AcDbArc
 50
347.7497904184
 51
56.54070144159999
  0
SPLINE
  5
32A
330
1F
100
AcDbEntity
  8
0
  6
Continuous
370
    15
100
AcDbSpline
210
0.0
220
0.0
230
1.0
 70
     8
 71
     3
 72
    10
 73
     6
 74
     0
 42
0.000000001
 43
0.00000001
 40
0.0
 40
0.0
 40
0.0
 40
0.0
 40
0.4206611519834062
 40
0.8413645506857381
 40
1.0
 40
1.0
 40
1.0
 40
1.0
 10
180.5369441116746
 20
142.0473102005425
 30
0.0
 10
180.6422599771849
 20
142.0093168356969
 30
0.0
 10
180.8529022850078
 20
141.9333262903574
 30
0.0
 10
181.0689062150406
 20
141.7809821041645
 30
0.0
 10
181.1654278853543
 20
141.6808942387852
 30
0.0
 10
181.1918575967248
 20
141.6534880264282
 30
0.0
  0
SPLINE
  5
32B
330
1F
100
AcDbEntity
  8
0
  6
Continuous
370
    15
100
AcDbSpline
210
0.0
220
0.0
230
1.0
 70
     8
 71
     3
 72
    10
 73
     6
 74
     0
 42
0.000000001
 43
0.00000001
 40
0.0
 40
0.0
 40
0.0
 40
0.0
 40
0.4206460877472459
 40
0.8413396410097229
 40
1.0
 40
1.0
 40
1.0
 40
1.0
 10
184.0202861184771
 20
142.3855391955689
 30
0.0
 10
183.9603736535075
 20
142.4606293298355
 30
0.0
 10
183.8405419630726
 20
142.6108180715057
 30
0.0
 10
183.7853657524758
 20
142.780800210156
 30
0.0
 10
183.7889187892481
 20
142.8659234022968
 30
0.0
 10
183.7898918146785
 20
142.8892350188024
 30
0.0
  0
ARC
  5
32C
330
1F
100
AcDbEntity
  8
0
  6
Continuous
370
    15
100
AcDbCircle
 10
176.7094727749
 20
136.0955188368
 30
0.0
 40
9.64429094636463
100
AcDbArc
 50
3.085953388
 51
40.70778672310001
  0
SPLINE
  5
32D
330
1F
100
AcDbEntity
  8
0
  6
Continuous
370
    15
100
AcDbSpline
210
0.0
220
0.0
230
1.0
 70
     8
 71
     3
 72
    10
 73
     6
 74
     0
 42
0.000000001
 43
0.00000001
 40
0.0
 40
0.0
 40
0.0
 40
0.0
 40
0.4206599363241753
 40
0.8413646003069924
 40
0.9999999999999999
 40
0.9999999999999999
 40
0.9999999999999999
 40
0.9999999999999999
 10
186.5690589601691
 20
135.9747517136103
 30
0.0
 10
186.5186343695471
 20
136.0444869446577
 30
0.0
 10
186.4177798267897
 20
136.1839648215153
 30
0.0
 10
186.3561706539221
 20
136.4255942713985
 30
0.0
 10
186.3433021759822
 20
136.57405739518
 30
0.0
 10
186.3397785181697
 20
136.614709696751
 30
0.0
  0
SPLINE
  5
32E
330
1F
100
AcDbEntity
  8
0
  6
Continuous
370
    15
100
AcDbSpline
210
0.0
220
0.0
230
1.0
 70
     8
 71
     3
 72
    10
 73
     6
 74
     0
 42
0.000000001
 43
0.00000001
 40
0.0
 40
0.0
 40
0.0
 40
0.0
 40
0.4206464386441363
 40
0.841338881723909
 40
1.0
 40
1.0
 40
1.0
 40
1.0
 10
183.5113518590625
 20
135.8826590096984
 30
0.0
 10
183.5091962761549
 20
135.771676107965
 30
0.0
 10
183.5048848745922
 20
135.5496981667374
 30
0.0
 10
183.4120518989698
 20
135.2941265997803
 30
0.0
 10
183.336736930254
 20
135.1675037008243
 30
0.0
 10
183.3161112571652
 20
135.1328268953504
 30
0.0
  0
ARC
  5
32F
330
1F
100
AcDbEntity
  8
0
  6
Continuous
370
    15
100
AcDbCircle
 10
173.8810365119
 20
135.3634614045
 30
0.0
 40
9.644300899495503
100
AcDbArc
 50
3.0859903316
 51
40.7077849345
  0
ARC
  5
330
330
1F
100
AcDbEntity
  8
0
  6
Continuous
370
    15
100
AcDbCircle
 10
188.0048356896
 20
135.2491558231
 30
0.0
 40
0.7466524677892814
100
AcDbArc
 50
352.4722640191
 51
65.8803433005
  0
ARC
  5
331
330
1F
100
AcDbEntity
  8
0
  6
Continuous
370
    15
100
AcDbCircle
 10
176.4491650485
 20
136.0269382618
 30
0.0
 40
10.18746150886779
100
AcDbArc
 50
2.85509143
 51
40.9386538622
  0
SPLINE
  5
332
330
1F
100
AcDbEntity
  8
0
  6
Continuous
370
    15
100
AcDbSpline
210
0.0
220
0.0
230
1.0
 70
     8
 71
     3
 72
    10
 73
     6
 74
     0
 42
0.000000001
 43
0.00000001
 40
0.0
 40
0.0
 40
0.0
 40
0.0
 40
0.2538898937325307
 40
0.7964081525383513
 40
1.0
 40
1.0
 40
1.0
 40
1.0
 10
183.9306519086059
 20
143.0986991298205
 30
0.0
 10
183.9333971130254
 20
143.0682794324413
 30
0.0
 10
183.9420083387341
 20
142.9728581668115
 30
0.0
 10
184.0333561296198
 20
142.8314840200258
 30
0.0
 10
184.1209811576868
 20
142.7299768182658
 30
0.0
 10
184.1448914910252
 20
142.7022784416275
 30
0.0
  0
SPLINE
  5
333
330
1F
100
AcDbEntity
  8
0
  6
Continuous
370
    15
100
AcDbSpline
210
0.0
220
0.0
230
1.0
 70
     8
 71
     3
 72
    10
 73
     6
 74
     0
 42
0.000000001
 43
0.00000001
 40
0.0
 40
0.0
 40
0.0
 40
0.0
 40
0.4209708159402741
 40
0.8419814022990985
 40
1.0
 40
1.0
 40
1.0
 40
1.0
 10
186.6239809150393
 20
136.5343770029888
 30
0.0
 10
186.6368967669441
 20
136.4273892813992
 30
0.0
 10
186.6627296909543
 20
136.2134037307582
 30
0.0
 10
186.7587442960447
 20
136.0069485090352
 30
0.0
 10
186.8318956005299
 20
135.9188552900702
 30
0.0
 10
186.8518587852414
 20
135.8948144173284
 30
0.0
  0
LWPOLYLINE
  5
334
330
1F
100
AcDbEntity
  8
0
  6
Continuous
370
    15
100
AcDbPolyline
 90
        3
 70
   128
 43
0.0
 10
186.8518587852
 20
135.8948144173
 10
186.9022489245
 20
135.8461185931
 10
186.9485729093
 20
135.8110005703
  0
LINE
  5
335
330
1F
100
AcDbEntity
  8
0
  6
Continuous
370
    15
100
AcDbLine
 10
217.3422869945
 20
120.144220743
 30
0.0
 11
217.3422869945
 21
117.6869003786
 31
0.0
  0
LINE
  5
336
330
1F
100
AcDbEntity
  8
0
  6
Continuous
370
    15
100
AcDbLine
 10
208.5422870422
 20
120.144220743
 30
0.0
 11
208.5422870422
 21
117.6869003786
 31
0.0
  0
LINE
  5
337
330
1F
100
AcDbEntity
  8
0
  6
Continuous
370
    15
100
AcDbLine
 10
217.3422869945
 20
116.7580342982
 30
0.0
 11
217.3422869945
 21
117.6869003786
 31
0.0
  0
LINE
  5
338
330
1F
100
AcDbEntity
  8
0
  6
Continuous
370
    15
100
AcDbLine
 10
208.5422870422
 20
116.7580342982
 30
0.0
 11
208.5422870422
 21
117.6869003786
 31
0.0
  0
LINE
  5
339
330
1F
100
AcDbEntity
  8
0
  6
Continuous
370
    15
100
AcDbLine
 10
217.3422869945
 20
120.4427416956
 30
0.0
 11
217.3422869945
 21
120.1442223284
 31
0.0
  0
LINE
  5
33A
330
1F
100
AcDbEntity
  8
0
  6
Continuous
370
    15
100
AcDbLine
 10
208.5422870422
 20
120.4427416956
 30
0.0
 11
208.5422870422
 21
120.1442223284
 31
0.0
  0
LINE
  5
33B
330
1F
100
AcDbEntity
  8
0
  6
Continuous
370
    15
100
AcDbLine
 10
217.3422869945
 20
125.0071446635
 30
0.0
 11
217.3422869945
 21
120.4427416956
 31
0.0
  0
LINE
  5
33C
330
1F
100
AcDbEntity
  8
0
  6
Continuous
370
    15
100
AcDbLine
 10
208.5422870422
 20
125.0071446635
 30
0.0
 11
208.5422870422
 21
120.4427416956
 31
0.0
  0
ARC
  5
33D
330
1F
100
AcDbEntity
  8
0
  6
Continuous
370
    15
100
AcDbCircle
 10
216.3773676653
 20
129.6199024129
 30
0.0
 40
0.9656609874254386
100
AcDbArc
 50
2.2457168413
 51
92.0819032996
  0
ARC
  5
33E
330
1F
100
AcDbEntity
  8
0
  6
Continuous
370
    15
100
AcDbCircle
 10
209.5072063714
 20
129.6199024129
 30
0.0
 40
0.9656609874254375
100
AcDbArc
 50
87.91809670040001
 51
177.7542831587
  0
LINE
  5
33F
330
1F
100
AcDbEntity
  8
0
  6
Continuous
370
    15
100
AcDbLine
 10
216.3422870635
 20
130.5849259846
 30
0.0
 11
209.5422869733
 21
130.5849259846
 31
0.0
  0
LINE
  5
340
330
1F
100
AcDbEntity
  8
0
  6
Continuous
370
    15
100
AcDbLine
 10
217.3422869945
 20
129.6577419527
 30
0.0
 11
217.3422869945
 21
128.9656482356
 31
0.0
  0
LINE
  5
341
330
1F
100
AcDbEntity
  8
0
  6
Continuous
370
    15
100
AcDbLine
 10
217.3422869945
 20
128.4634436195
 30
0.0
 11
217.3422869945
 21
126.319878873
 31
0.0
  0
LINE
  5
342
330
1F
100
AcDbEntity
  8
0
  6
Continuous
370
    15
100
AcDbLine
 10
208.5422870422
 20
129.6577419527
 30
0.0
 11
208.5422870422
 21
128.9656482356
 31
0.0
  0
LINE
  5
343
330
1F
100
AcDbEntity
  8
0
  6
Continuous
370
    15
100
AcDbLine
 10
208.5422870422
 20
128.4634436195
 30
0.0
 11
208.5422870422
 21
126.319878873
 31
0.0
  0
ARC
  5
344
330
1F
100
AcDbEntity
  8
0
  6
Continuous
370
    15
100
AcDbCircle
 10
209.5072039561
 20
129.7697460709
 30
0.0
 40
0.9656584718510883
100
AcDbArc
 50
87.9179478688
 51
177.7544319903
  0
LINE
  5
345
330
1F
100
AcDbEntity
  8
0
  6
Continuous
370
    15
100
AcDbLine
 10
208.5422870422
 20
129.6577419527
 30
0.0
 11
208.5422870422
 21
129.8075830057
 31
0.0
  0
ARC
  5
346
330
1F
100
AcDbEntity
  8
0
  6
Continuous
370
    15
100
AcDbCircle
 10
216.3773700807
 20
129.7697460709
 30
0.0
 40
0.9656584718510883
100
AcDbArc
 50
2.2455680097
 51
92.0820521312
  0
LINE
  5
347
330
1F
100
AcDbEntity
  8
0
  6
Continuous
370
    15
100
AcDbLine
 10
217.3422869945
 20
129.8075830057
 30
0.0
 11
217.3422869945
 21
129.6577419527
 31
0.0
  0
LINE
  5
348
330
1F
100
AcDbEntity
  8
0
  6
Continuous
370
    15
100
AcDbLine
 10
216.3422870635
 20
130.7347670376
 30
0.0
 11
209.5422869733
 21
130.7347670376
 31
0.0
  0
LINE
  5
349
330
1F
100
AcDbEntity
  8
0
  6
Continuous
370
    15
100
AcDbLine
 10
217.3422869945
 20
125.0071446635
 30
0.0
 11
217.3422869945
 21
126.319878873
 31
0.0
  0
LINE
  5
34A
330
1F
100
AcDbEntity
  8
0
  6
Continuous
370
    15
100
AcDbLine
 10
208.5422870422
 20
125.0071446635
 30
0.0
 11
208.5422870422
 21
126.319878873
 31
0.0
  0
LWPOLYLINE
  5
34B
330
1F
100
AcDbEntity
  8
0
  6
Continuous
370
     0
100
AcDbPolyline
 90
       11
 70
   128
 43
0.0
 10
248.2780066038
 20
101.6645750282
 10
248.354658177
 20
101.6194672556
 10
249.550491264
 20
100.8190441914
 10
250.4768182243
 20
99.9950359341
 10
251.1268143261
 20
99.1535085974
 10
251.4957000221
 20
98.3006576756
 10
251.5807558502
 20
97.4427617627
 10
251.3813596869
 20
96.5861365736
 10
250.8989718462
 20
95.7370886635
 10
250.1371499802
 20
94.9018686052
 10
249.7651722933
 20
94.5809908065
  0
LWPOLYLINE
  5
34C
330
1F
100
AcDbEntity
  8
0
  6
Continuous
370
     0
100
AcDbPolyline
 90
       10
 70
   128
 43
0.0
 10
175.5553182865
 20
95.0848885082
 10
175.1165014411
 20
95.567824781
 10
174.5775711442
 20
96.4145916916
 10
174.3210811819
 20
97.2701985902
 10
174.3489202763
 20
98.1283466954
 10
174.6608798111
 20
98.9827183037
 10
175.254668733
 20
99.8270236727
 10
176.1259098257
 20
100.6550470003
 10
177.2681918646
 20
101.4606922832
 10
178.3740219379
 20
102.0863668698
  0
LINE
  5
34D
330
1F
100
AcDbEntity
  8
0
  6
Continuous
370
     0
100
AcDbLine
 10
191.1133431549
 20
105.868714886
 30
0.0
 11
191.9140179361
 21
106.0068147898
 31
0.0
  0
LWPOLYLINE
  5
34E
330
1F
100
AcDbEntity
  8
0
  6
Continuous
370
     0
100
AcDbPolyline
 90
       37
 70
   128
 43
0.0
 10
250.6289479042
 20
96.7637341526
 10
250.2904046977
 20
96.2257586116
 10
249.5402616168
 20
95.4041599508
 10
248.5208359266
 20
94.602222648
 10
247.2396229113
 20
93.8258470994
 10
245.7060512806
 20
93.0807462891
 10
243.9314068014
 20
92.3724022814
 10
241.9287447537
 20
91.7060269299
 10
239.7128023858
 20
91.0865235523
 10
237.2998834307
 20
90.5184507728
 10
234.7077444846
 20
90.0059873308
 10
231.9554553086
 20
89.552905565
 10
229.0632665808
 20
89.1625376681
 10
226.0524627472
 20
88.8377568846
 10
222.9451934526
 20
88.580952443
 10
219.7643240633
 20
88.3940141284
 10
216.533258017
 20
88.2783178199
 10
213.2757699418
 20
88.234713921
 10
210.0158281809
 20
88.2635235022
 10
206.7774191218
 20
88.364535409
 10
203.5843708272
 20
88.5370062616
 10
200.4601775388
 20
88.7796652759
 10
197.4278275574
 20
89.0907287263
 10
194.5096307153
 20
89.4679076587
 10
191.7270623798
 20
89.9084271744
 10
189.100593021
 20
90.409044267
 10
186.6495513076
 20
90.9660767483
 10
184.3919676448
 20
91.5754254235
 10
182.3444586898
 20
92.232607356
 10
180.5220839287
 20
92.9327867207
 10
178.9382581318
 20
93.6708119249
 10
177.604630282
 20
94.4412517645
 10
176.5310165192
 20
95.2384380897
 10
175.7253144587
 20
96.056505094
 10
175.1934547628
 20
96.8894334263
 10
174.9393452609
 20
97.7310945726
 10
174.918800285
 20
97.955825132
  0
LINE
  5
34F
330
1F
100
AcDbEntity
  8
0
  6
Continuous
370
     0
100
AcDbLine
 10
191.881941324
 20
106.9332594971
 30
0.0
 11
191.881941324
 21
106.0362186044
 31
0.0
  0
LINE
  5
350
330
1F
100
AcDbEntity
  8
0
  6
Continuous
370
     0
100
AcDbLine
 10
248.7716559971
 20
122.0195337575
 30
0.0
 11
249.3443970288
 21
146.8431830241
 31
0.0
  0
LINE
  5
351
330
1F
100
AcDbEntity
  8
0
  6
Continuous
370
     0
100
AcDbLine
 10
176.6193617786
 20
143.4112422838
 30
0.0
 11
177.113230964
 21
122.0060972289
 31
0.0
  0
LINE
  5
352
330
1F
100
AcDbEntity
  8
0
  6
Continuous
370
     0
100
AcDbLine
 10
248.999099871
 20
146.8294424195
 30
0.0
 11
248.4381940866
 21
122.2183641617
 31
0.0
  0
LINE
  5
353
330
1F
100
AcDbEntity
  8
0
  6
Continuous
370
     0
100
AcDbLine
 10
177.4467338527
 20
122.2027938437
 30
0.0
 11
176.9707870389
 21
143.0861458952
 31
0.0
  0
LINE
  5
354
330
1F
100
AcDbEntity
  8
0
  6
Continuous
370
     0
100
AcDbLine
 10
249.8214726056
 20
121.4749749136
 30
0.0
 11
251.1806522215
 21
121.4749749136
 31
0.0
  0
LINE
  5
355
330
1F
100
AcDbEntity
  8
0
  6
Continuous
370
     0
100
AcDbLine
 10
174.7039218152
 20
121.4749749136
 30
0.0
 11
176.0631014312
 21
121.4749749136
 31
0.0
  0
LINE
  5
356
330
1F
100
AcDbEntity
  8
0
  6
Continuous
370
     0
100
AcDbLine
 10
250.713884523
 20
146.106083923
 30
0.0
 11
249.385464629
 21
146.106083923
 31
0.0
  0
LINE
  5
357
330
1F
100
AcDbEntity
  8
0
  6
Continuous
370
     0
100
AcDbLine
 10
252.4422888363
 20
114.6141158859
 30
0.0
 11
252.4422888363
 21
114.0105972219
 31
0.0
  0
LINE
  5
358
330
1F
100
AcDbEntity
  8
0
  6
Continuous
370
     0
100
AcDbLine
 10
173.4422852004
 20
114.6141158859
 30
0.0
 11
173.4422852004
 21
114.0105972219
 31
0.0
  0
LINE
  5
359
330
1F
100
AcDbEntity
  8
0
  6
Continuous
370
     0
100
AcDbLine
 10
252.1422874833
 20
116.0630039633
 30
0.0
 11
252.1422874833
 21
115.7042065657
 31
0.0
  0
LINE
  5
35A
330
1F
100
AcDbEntity
  8
0
  6
Continuous
370
     0
100
AcDbLine
 10
173.7422865535
 20
116.0630039633
 30
0.0
 11
173.7422865535
 21
115.7042065657
 31
0.0
  0
LINE
  5
35B
330
1F
100
AcDbEntity
  8
0
  6
Continuous
370
     0
100
AcDbLine
 10
173.4422852004
 20
116.0630039633
 30
0.0
 11
173.4422852004
 21
115.0341981988
 31
0.0
  0
LINE
  5
35C
330
1F
100
AcDbEntity
  8
0
  6
Continuous
370
     0
100
AcDbLine
 10
252.4422888363
 20
116.0630039633
 30
0.0
 11
252.4422888363
 21
115.0341981988
 31
0.0
  0
LINE
  5
35D
330
1F
100
AcDbEntity
  8
0
  6
Continuous
370
     0
100
AcDbLine
 10
252.1422874833
 20
117.5118920406
 30
0.0
 11
252.1422874833
 21
117.1530946431
 31
0.0
  0
LINE
  5
35E
330
1F
100
AcDbEntity
  8
0
  6
Continuous
370
     0
100
AcDbLine
 10
173.7422865535
 20
117.5118920406
 30
0.0
 11
173.7422865535
 21
117.1530946431
 31
0.0
  0
LINE
  5
35F
330
1F
100
AcDbEntity
  8
0
  6
Continuous
370
     0
100
AcDbLine
 10
173.4422852004
 20
117.5118920406
 30
0.0
 11
173.4422852004
 21
116.4858593671
 31
0.0
  0
LINE
  5
360
330
1F
100
AcDbEntity
  8
0
  6
Continuous
370
     0
100
AcDbLine
 10
252.4422888363
 20
117.5118920406
 30
0.0
 11
252.4422888363
 21
116.4858593671
 31
0.0
  0
LINE
  5
361
330
1F
100
AcDbEntity
  8
0
  6
Continuous
370
     0
100
AcDbLine
 10
173.7422865535
 20
118.960780118
 30
0.0
 11
173.7422865535
 21
118.6019827204
 31
0.0
  0
LINE
  5
362
330
1F
100
AcDbEntity
  8
0
  6
Continuous
370
     0
100
AcDbLine
 10
252.1422874833
 20
118.960780118
 30
0.0
 11
252.1422874833
 21
118.6019827204
 31
0.0
  0
LINE
  5
363
330
1F
100
AcDbEntity
  8
0
  6
Continuous
370
     0
100
AcDbLine
 10
173.4422852004
 20
118.960780118
 30
0.0
 11
173.4422852004
 21
117.9375205354
 31
0.0
  0
LINE
  5
364
330
1F
100
AcDbEntity
  8
0
  6
Continuous
370
     0
100
AcDbLine
 10
252.4422888363
 20
118.960780118
 30
0.0
 11
252.4422888363
 21
117.9375205354
 31
0.0
  0
LINE
  5
365
330
1F
100
AcDbEntity
  8
0
  6
Continuous
370
     0
100
AcDbLine
 10
252.1422874833
 20
120.4096681953
 30
0.0
 11
252.1422874833
 21
120.0508707977
 31
0.0
  0
LINE
  5
366
330
1F
100
AcDbEntity
  8
0
  6
Continuous
370
     0
100
AcDbLine
 10
173.7422865535
 20
120.4096681953
 30
0.0
 11
173.7422865535
 21
120.0508707977
 31
0.0
  0
LINE
  5
367
330
1F
100
AcDbEntity
  8
0
  6
Continuous
370
     0
100
AcDbLine
 10
173.4422852004
 20
120.4096681953
 30
0.0
 11
173.4422852004
 21
119.3891815831
 31
0.0
  0
LINE
  5
368
330
1F
100
AcDbEntity
  8
0
  6
Continuous
370
     0
100
AcDbLine
 10
252.4422888363
 20
120.4096681953
 30
0.0
 11
252.4422888363
 21
119.3891815831
 31
0.0
  0
LINE
  5
369
330
1F
100
AcDbEntity
  8
0
  6
Continuous
370
     0
100
AcDbLine
 10
252.1422874833
 20
121.8585562726
 30
0.0
 11
252.1422874833
 21
121.4997588751
 31
0.0
  0
LINE
  5
36A
330
1F
100
AcDbEntity
  8
0
  6
Continuous
370
     0
100
AcDbLine
 10
173.7422865535
 20
121.8585562726
 30
0.0
 11
173.7422865535
 21
121.4997588751
 31
0.0
  0
LINE
  5
36B
330
1F
100
AcDbEntity
  8
0
  6
Continuous
370
     0
100
AcDbLine
 10
252.4422888363
 20
121.8585562726
 30
0.0
 11
252.4422888363
 21
120.8408427513
 31
0.0
  0
LINE
  5
36C
330
1F
100
AcDbEntity
  8
0
  6
Continuous
370
     0
100
AcDbLine
 10
173.4422852004
 20
121.8585562726
 30
0.0
 11
173.4422852004
 21
120.8408427513
 31
0.0
  0
LINE
  5
36D
330
1F
100
AcDbEntity
  8
0
  6
Continuous
370
     0
100
AcDbLine
 10
252.1422874833
 20
123.3074479483
 30
0.0
 11
252.1422874833
 21
122.9486505508
 31
0.0
  0
LINE
  5
36E
330
1F
100
AcDbEntity
  8
0
  6
Continuous
370
     0
100
AcDbLine
 10
173.7422865535
 20
123.3074479483
 30
0.0
 11
173.7422865535
 21
122.9486505508
 31
0.0
  0
LINE
  5
36F
330
1F
100
AcDbEntity
  8
0
  6
Continuous
370
     0
100
AcDbLine
 10
173.4422852004
 20
123.3074479483
 30
0.0
 11
173.4422852004
 21
122.292507518
 31
0.0
  0
LINE
  5
370
330
1F
100
AcDbEntity
  8
0
  6
Continuous
370
     0
100
AcDbLine
 10
252.4422888363
 20
123.3074479483
 30
0.0
 11
252.4422888363
 21
122.292507518
 31
0.0
  0
LINE
  5
371
330
1F
100
AcDbEntity
  8
0
  6
Continuous
370
     0
100
AcDbLine
 10
252.1422874833
 20
124.7563360257
 30
0.0
 11
252.1422874833
 21
124.3975386281
 31
0.0
  0
LINE
  5
372
330
1F
100
AcDbEntity
  8
0
  6
Continuous
370
     0
100
AcDbLine
 10
173.7422865535
 20
124.7563360257
 30
0.0
 11
173.7422865535
 21
124.3975386281
 31
0.0
  0
LINE
  5
373
330
1F
100
AcDbEntity
  8
0
  6
Continuous
370
     0
100
AcDbLine
 10
173.4422852004
 20
124.7563360257
 30
0.0
 11
173.4422852004
 21
123.7441686862
 31
0.0
  0
LINE
  5
374
330
1F
100
AcDbEntity
  8
0
  6
Continuous
370
     0
100
AcDbLine
 10
252.4422888363
 20
124.7563360257
 30
0.0
 11
252.4422888363
 21
123.7441686862
 31
0.0
  0
LINE
  5
375
330
1F
100
AcDbEntity
  8
0
  6
Continuous
370
     0
100
AcDbLine
 10
173.7422865535
 20
126.205224103
 30
0.0
 11
173.7422865535
 21
125.8464267054
 31
0.0
  0
LINE
  5
376
330
1F
100
AcDbEntity
  8
0
  6
Continuous
370
     0
100
AcDbLine
 10
252.1422874833
 20
126.205224103
 30
0.0
 11
252.1422874833
 21
125.8464267054
 31
0.0
  0
LINE
  5
377
330
1F
100
AcDbEntity
  8
0
  6
Continuous
370
     0
100
AcDbLine
 10
252.4422888363
 20
126.205224103
 30
0.0
 11
252.4422888363
 21
125.195829734
 31
0.0
  0
LINE
  5
378
330
1F
100
AcDbEntity
  8
0
  6
Continuous
370
     0
100
AcDbLine
 10
173.4422852004
 20
126.205224103
 30
0.0
 11
173.4422852004
 21
125.195829734
 31
0.0
  0
LINE
  5
379
330
1F
100
AcDbEntity
  8
0
  6
Continuous
370
     0
100
AcDbLine
 10
252.1422874833
 20
127.6541121803
 30
0.0
 11
252.1422874833
 21
127.2953147828
 31
0.0
  0
LINE
  5
37A
330
1F
100
AcDbEntity
  8
0
  6
Continuous
370
     0
100
AcDbLine
 10
173.7422865535
 20
127.6541121803
 30
0.0
 11
173.7422865535
 21
127.2953147828
 31
0.0
  0
LINE
  5
37B
330
1F
100
AcDbEntity
  8
0
  6
Continuous
370
     0
100
AcDbLine
 10
173.4422852004
 20
127.6541121803
 30
0.0
 11
173.4422852004
 21
126.6474909022
 31
0.0
  0
LINE
  5
37C
330
1F
100
AcDbEntity
  8
0
  6
Continuous
370
     0
100
AcDbLine
 10
252.4422888363
 20
127.6541121803
 30
0.0
 11
252.4422888363
 21
126.6474909022
 31
0.0
  0
LINE
  5
37D
330
1F
100
AcDbEntity
  8
0
  6
Continuous
370
     0
100
AcDbLine
 10
173.7422865535
 20
129.1030020568
 30
0.0
 11
173.7422865535
 21
128.7442046593
 31
0.0
  0
LINE
  5
37E
330
1F
100
AcDbEntity
  8
0
  6
Continuous
370
     0
100
AcDbLine
 10
252.1422874833
 20
129.1030020568
 30
0.0
 11
252.1422874833
 21
128.7442046593
 31
0.0
  0
LINE
  5
37F
330
1F
100
AcDbEntity
  8
0
  6
Continuous
370
     0
100
AcDbLine
 10
252.4422888363
 20
129.1030020568
 30
0.0
 11
252.4422888363
 21
128.0991538696
 31
0.0
  0
LINE
  5
380
330
1F
100
AcDbEntity
  8
0
  6
Continuous
370
     0
100
AcDbLine
 10
173.4422852004
 20
129.1030020568
 30
0.0
 11
173.4422852004
 21
128.0991538696
 31
0.0
  0
LINE
  5
381
330
1F
100
AcDbEntity
  8
0
  6
Continuous
370
     0
100
AcDbLine
 10
252.1422874833
 20
130.5518901342
 30
0.0
 11
252.1422874833
 21
130.1930927366
 31
0.0
  0
LINE
  5
382
330
1F
100
AcDbEntity
  8
0
  6
Continuous
370
     0
100
AcDbLine
 10
173.7422865535
 20
130.5518901342
 30
0.0
 11
173.7422865535
 21
130.1930927366
 31
0.0
  0
LINE
  5
383
330
1F
100
AcDbEntity
  8
0
  6
Continuous
370
     0
100
AcDbLine
 10
173.4422852004
 20
130.5518901342
 30
0.0
 11
173.4422852004
 21
129.5508150379
 31
0.0
  0
LINE
  5
384
330
1F
100
AcDbEntity
  8
0
  6
Continuous
370
     0
100
AcDbLine
 10
252.4422888363
 20
130.5518901342
 30
0.0
 11
252.4422888363
 21
129.5508150379
 31
0.0
  0
LINE
  5
385
330
1F
100
AcDbEntity
  8
0
  6
Continuous
370
     0
100
AcDbLine
 10
173.7422865535
 20
132.0007800107
 30
0.0
 11
173.7422865535
 21
131.6419826131
 31
0.0
  0
LINE
  5
386
330
1F
100
AcDbEntity
  8
0
  6
Continuous
370
     0
100
AcDbLine
 10
252.1422874833
 20
132.0007800107
 30
0.0
 11
252.1422874833
 21
131.6419826131
 31
0.0
  0
LINE
  5
387
330
1F
100
AcDbEntity
  8
0
  6
Continuous
370
     0
100
AcDbLine
 10
252.4422888363
 20
132.0007800107
 30
0.0
 11
252.4422888363
 21
131.0024778848
 31
0.0
  0
LINE
  5
388
330
1F
100
AcDbEntity
  8
0
  6
Continuous
370
     0
100
AcDbLine
 10
173.4422852004
 20
132.0007800107
 30
0.0
 11
173.4422852004
 21
131.0024778848
 31
0.0
  0
LINE
  5
389
330
1F
100
AcDbEntity
  8
0
  6
Continuous
370
     0
100
AcDbLine
 10
173.7422865535
 20
133.449668088
 30
0.0
 11
173.7422865535
 21
133.0908706905
 31
0.0
  0
LINE
  5
38A
330
1F
100
AcDbEntity
  8
0
  6
Continuous
370
     0
100
AcDbLine
 10
252.1422874833
 20
133.449668088
 30
0.0
 11
252.1422874833
 21
133.0908706905
 31
0.0
  0
LINE
  5
38B
330
1F
100
AcDbEntity
  8
0
  6
Continuous
370
     0
100
AcDbLine
 10
173.4422852004
 20
133.449668088
 30
0.0
 11
173.4422852004
 21
132.4541390531
 31
0.0
  0
LINE
  5
38C
330
1F
100
AcDbEntity
  8
0
  6
Continuous
370
     0
100
AcDbLine
 10
252.4422888363
 20
133.449668088
 30
0.0
 11
252.4422888363
 21
132.4541390531
 31
0.0
  0
LINE
  5
38D
330
1F
100
AcDbEntity
  8
0
  6
Continuous
370
     0
100
AcDbLine
 10
252.1422874833
 20
134.8985561654
 30
0.0
 11
252.1422874833
 21
134.5397587678
 31
0.0
  0
LINE
  5
38E
330
1F
100
AcDbEntity
  8
0
  6
Continuous
370
     0
100
AcDbLine
 10
173.7422865535
 20
134.8985561654
 30
0.0
 11
173.7422865535
 21
134.5397587678
 31
0.0
  0
LINE
  5
38F
330
1F
100
AcDbEntity
  8
0
  6
Continuous
370
     0
100
AcDbLine
 10
173.4422852004
 20
134.8985561654
 30
0.0
 11
173.4422852004
 21
133.9058002213
 31
0.0
  0
LINE
  5
390
330
1F
100
AcDbEntity
  8
0
  6
Continuous
370
     0
100
AcDbLine
 10
252.4422888363
 20
134.8985561654
 30
0.0
 11
252.4422888363
 21
133.9058002213
 31
0.0
  0
LINE
  5
391
330
1F
100
AcDbEntity
  8
0
  6
Continuous
370
     0
100
AcDbLine
 10
252.1422874833
 20
136.3474460419
 30
0.0
 11
252.1422874833
 21
135.9886486443
 31
0.0
  0
LINE
  5
392
330
1F
100
AcDbEntity
  8
0
  6
Continuous
370
     0
100
AcDbLine
 10
173.7422865535
 20
136.3474460419
 30
0.0
 11
173.7422865535
 21
135.9886486443
 31
0.0
  0
LINE
  5
393
330
1F
100
AcDbEntity
  8
0
  6
Continuous
370
     0
100
AcDbLine
 10
252.4422888363
 20
136.3474460419
 30
0.0
 11
252.4422888363
 21
135.3574631888
 31
0.0
  0
LINE
  5
394
330
1F
100
AcDbEntity
  8
0
  6
Continuous
370
     0
100
AcDbLine
 10
173.4422852004
 20
136.3474460419
 30
0.0
 11
173.4422852004
 21
135.3574631888
 31
0.0
  0
LINE
  5
395
330
1F
100
AcDbEntity
  8
0
  6
Continuous
370
     0
100
AcDbLine
 10
173.7422865535
 20
137.7963341192
 30
0.0
 11
173.7422865535
 21
137.4375367217
 31
0.0
  0
LINE
  5
396
330
1F
100
AcDbEntity
  8
0
  6
Continuous
370
     0
100
AcDbLine
 10
252.1422874833
 20
137.7963341192
 30
0.0
 11
252.1422874833
 21
137.4375367217
 31
0.0
  0
LINE
  5
397
330
1F
100
AcDbEntity
  8
0
  6
Continuous
370
     0
100
AcDbLine
 10
173.4422852004
 20
137.7963341192
 30
0.0
 11
173.4422852004
 21
136.8091242365
 31
0.0
  0
LINE
  5
398
330
1F
100
AcDbEntity
  8
0
  6
Continuous
370
     0
100
AcDbLine
 10
252.4422888363
 20
137.7963341192
 30
0.0
 11
252.4422888363
 21
136.8091242365
 31
0.0
  0
LINE
  5
399
330
1F
100
AcDbEntity
  8
0
  6
Continuous
370
     0
100
AcDbLine
 10
173.7422865535
 20
139.2452221966
 30
0.0
 11
173.7422865535
 21
138.886424799
 31
0.0
  0
LINE
  5
39A
330
1F
100
AcDbEntity
  8
0
  6
Continuous
370
     0
100
AcDbLine
 10
252.1422874833
 20
139.2452221966
 30
0.0
 11
252.1422874833
 21
138.886424799
 31
0.0
  0
LINE
  5
39B
330
1F
100
AcDbEntity
  8
0
  6
Continuous
370
     0
100
AcDbLine
 10
252.4422888363
 20
139.2452221966
 30
0.0
 11
252.4422888363
 21
138.2607854048
 31
0.0
  0
LINE
  5
39C
330
1F
100
AcDbEntity
  8
0
  6
Continuous
370
     0
100
AcDbLine
 10
173.4422852004
 20
139.2452221966
 30
0.0
 11
173.4422852004
 21
138.2607854048
 31
0.0
  0
LINE
  5
39D
330
1F
100
AcDbEntity
  8
0
  6
Continuous
370
     0
100
AcDbLine
 10
173.7422865535
 20
140.6941120731
 30
0.0
 11
173.7422865535
 21
140.3353146755
 31
0.0
  0
LINE
  5
39E
330
1F
100
AcDbEntity
  8
0
  6
Continuous
370
     0
100
AcDbLine
 10
252.1422874833
 20
140.6941120731
 30
0.0
 11
252.1422874833
 21
140.3353146755
 31
0.0
  0
LINE
  5
39F
330
1F
100
AcDbEntity
  8
0
  6
Continuous
370
     0
100
AcDbLine
 10
252.4422888363
 20
140.6941120731
 30
0.0
 11
252.4422888363
 21
139.7124483722
 31
0.0
  0
LINE
  5
3A0
330
1F
100
AcDbEntity
  8
0
  6
Continuous
370
     0
100
AcDbLine
 10
173.4422852004
 20
140.6941120731
 30
0.0
 11
173.4422852004
 21
139.7124483722
 31
0.0
  0
LINE
  5
3A1
330
1F
100
AcDbEntity
  8
0
  6
Continuous
370
     0
100
AcDbLine
 10
173.7422865535
 20
142.1430001504
 30
0.0
 11
173.7422865535
 21
141.7842027528
 31
0.0
  0
LINE
  5
3A2
330
1F
100
AcDbEntity
  8
0
  6
Continuous
370
     0
100
AcDbLine
 10
252.1422874833
 20
142.1430001504
 30
0.0
 11
252.1422874833
 21
141.7842027528
 31
0.0
  0
LINE
  5
3A3
330
1F
100
AcDbEntity
  8
0
  6
Continuous
370
     0
100
AcDbLine
 10
252.4422888363
 20
142.1430001504
 30
0.0
 11
252.4422888363
 21
141.1641095405
 31
0.0
  0
LINE
  5
3A4
330
1F
100
AcDbEntity
  8
0
  6
Continuous
370
     0
100
AcDbLine
 10
173.4422852004
 20
142.1430001504
 30
0.0
 11
173.4422852004
 21
141.1641095405
 31
0.0
  0
LINE
  5
3A5
330
1F
100
AcDbEntity
  8
0
  6
Continuous
370
     0
100
AcDbLine
 10
173.7422865535
 20
143.5918882277
 30
0.0
 11
173.7422865535
 21
143.2330908302
 31
0.0
  0
LINE
  5
3A6
330
1F
100
AcDbEntity
  8
0
  6
Continuous
370
     0
100
AcDbLine
 10
252.1422874833
 20
143.5918882277
 30
0.0
 11
252.1422874833
 21
143.2330908302
 31
0.0
  0
LINE
  5
3A7
330
1F
100
AcDbEntity
  8
0
  6
Continuous
370
     0
100
AcDbLine
 10
252.4422888363
 20
143.5918882277
 30
0.0
 11
252.4422888363
 21
142.6157705882
 31
0.0
  0
LINE
  5
3A8
330
1F
100
AcDbEntity
  8
0
  6
Continuous
370
     0
100
AcDbLine
 10
173.4422852004
 20
143.5918882277
 30
0.0
 11
173.4422852004
 21
142.6157705882
 31
0.0
  0
LINE
  5
3A9
330
1F
100
AcDbEntity
  8
0
  6
Continuous
370
     0
100
AcDbLine
 10
252.1422874833
 20
145.0407781043
 30
0.0
 11
252.1422874833
 21
144.6819807067
 31
0.0
  0
LINE
  5
3AA
330
1F
100
AcDbEntity
  8
0
  6
Continuous
370
     0
100
AcDbLine
 10
173.7422865535
 20
145.0407781043
 30
0.0
 11
173.7422865535
 21
144.6819807067
 31
0.0
  0
LINE
  5
3AB
330
1F
100
AcDbEntity
  8
0
  6
Continuous
370
     0
100
AcDbLine
 10
252.4422888363
 20
145.0407781043
 30
0.0
 11
252.4422888363
 21
144.0674335556
 31
0.0
  0
LINE
  5
3AC
330
1F
100
AcDbEntity
  8
0
  6
Continuous
370
     0
100
AcDbLine
 10
173.4422852004
 20
145.0407781043
 30
0.0
 11
173.4422852004
 21
144.0674335556
 31
0.0
  0
LWPOLYLINE
  5
3AD
330
1F
100
AcDbEntity
  8
0
  6
Continuous
370
     0
100
AcDbPolyline
 90
        3
 70
   128
 43
0.0
 10
179.6370778883
 20
123.1809451153
 10
179.9897660221
 20
123.4061472397
 10
181.2720742727
 20
124.1105323404
  0
ARC
  5
3AE
330
1F
100
AcDbEntity
  8
0
  6
Continuous
370
     0
100
AcDbCircle
 10
209.7122711089
 20
33.0356087136
 30
0.0
 40
95.91192550739896
100
AcDbArc
 50
93.3654241664
 51
102.6944506077
  0
LINE
  5
3AF
330
1F
100
AcDbEntity
  8
0
  6
Continuous
370
     0
100
AcDbLine
 10
208.0056487302
 20
128.9821732252
 30
0.0
 11
208.5422870422
 21
129.0004675021
 31
0.0
  0
ARC
  5
3B0
330
1F
100
AcDbEntity
  8
0
  6
Continuous
370
     0
100
AcDbCircle
 10
212.9422870184
 20
-8.4317001218
 30
0.0
 40
137.5025993688061
100
AcDbArc
 50
88.254527246
 51
91.745472754
  0
LINE
  5
3B1
330
1F
100
AcDbEntity
  8
0
  6
Continuous
370
     0
100
AcDbLine
 10
217.3422869945
 20
129.0004675021
 30
0.0
 11
217.8898157271
 21
128.9817798414
 31
0.0
  0
LWPOLYLINE
  5
3B2
330
1F
100
AcDbEntity
  8
0
  6
Continuous
370
     0
100
AcDbPolyline
 90
       12
 70
   128
 43
0.0
 10
221.802713042
 20
128.7821279009
 10
224.5896576623
 20
128.5659702302
 10
227.5312763358
 20
128.2653102397
 10
230.358715793
 20
127.8985395881
 10
233.0498487408
 20
127.4685276633
 10
235.5836123879
 20
126.9786404041
 10
237.940177014
 20
126.4327118567
 10
240.1011005695
 20
125.8350142852
 10
242.0494683737
 20
125.190225872
 10
243.7700328136
 20
124.5033926325
 10
245.24933069
 20
123.7798900896
 10
246.2474961484
 20
123.1809451153
  0
LWPOLYLINE
  5
3B3
330
1F
100
AcDbEntity
  8
0
  6
Continuous
370
     0
100
AcDbPolyline
 90
       32
 70
   128
 43
0.0
 10
248.0963353718
 20
149.5123136629
 10
247.7655072416
 20
149.9230523104
 10
246.9032031203
 20
150.7203126361
 10
245.7689975108
 20
151.4944320127
 10
244.3719838465
 20
152.2392124755
 10
242.7233361358
 20
152.9486913185
 10
240.8362605328
 20
153.6171888214
 10
238.7258630897
 20
154.2393523609
 10
236.4090398605
 20
154.8102010032
 10
233.9043390656
 20
155.3251645539
 10
231.2318120802
 20
155.7801201958
 10
228.4128597657
 20
156.171425754
 10
225.4700471366
 20
156.4959471741
 10
222.4269366542
 20
156.7510874478
 10
219.3078903201
 20
156.9348044502
 10
216.1378808504
 20
157.0456258844
 10
212.9422870184
 20
157.0826656726
 10
209.7466931863
 20
157.0456258844
 10
206.5766837167
 20
156.9348044502
 10
203.4576373825
 20
156.7510874478
 10
200.4145269001
 20
156.4959471741
 10
197.4717142711
 20
156.171425754
 10
194.6527619565
 20
155.7801201958
 10
191.9802349711
 20
155.3251645539
 10
189.4755341763
 20
154.8102010032
 10
187.1587109471
 20
154.2393523609
 10
185.048313504
 20
153.6171888214
 10
183.1612379009
 20
152.9486913185
 10
181.5125901903
 20
152.2392124755
 10
180.115576526
 20
151.4944320127
 10
178.9813709165
 20
150.7203126361
 10
178.5887290443
 20
150.3906962686
  0
ARC
  5
3B4
330
1F
100
AcDbEntity
  8
0
  6
Continuous
370
     0
100
AcDbCircle
 10
213.2832338777
 20
61.5774219831
 30
0.0
 40
100.3885222760534
100
AcDbArc
 50
85.7948186215
 51
87.027259238
  0
ARC
  5
3B5
330
1F
100
AcDbEntity
  8
0
  6
Continuous
370
     0
100
AcDbCircle
 10
212.7950320815
 20
58.0719055414
 30
0.0
 40
103.8993485888922
100
AcDbArc
 50
92.01658081519999
 51
93.35559653730002
  0
LINE
  5
3B6
330
1F
100
AcDbEntity
  8
0
  6
Continuous
370
     0
100
AcDbLine
 10
209.568584496
 20
157.5323183617
 30
0.0
 11
209.567197291
 21
157.3590377544
 31
0.0
  0
ARC
  5
3B7
330
1F
100
AcDbEntity
  8
0
  6
Continuous
370
     0
100
AcDbCircle
 10
217.9988367674
 20
99.5812042297
 30
0.0
 40
62.07356865946509
100
AcDbArc
 50
78.45723653729999
 51
80.7753986535
  0
ARC
  5
3B8
330
1F
100
AcDbEntity
  8
0
  6
Continuous
370
     0
100
AcDbCircle
 10
208.9767846028
 20
93.2727573352
 30
0.0
 40
68.47536277231401
100
AcDbArc
 50
98.1721547879
 51
100.3434573383
  0
ARC
  5
3B9
330
1F
100
AcDbEntity
  8
0
  6
Continuous
370
     0
100
AcDbCircle
 10
198.6800796587
 20
135.1496850246
 30
0.0
 40
25.29598076490861
100
AcDbArc
 50
107.9717179659
 51
112.1902185654
  0
ARC
  5
3BA
330
1F
100
AcDbEntity
  8
0
  6
Continuous
370
     0
100
AcDbCircle
 10
188.3794778314
 20
153.811806184
 30
0.0
 40
3.814427992888786
100
AcDbArc
 50
131.2087925524
 51
150.3218872345
  0
LINE
  5
3BB
330
1F
100
AcDbEntity
  8
0
  6
Continuous
370
     0
100
AcDbLine
 10
185.0654237623
 20
157.4390982105
 30
0.0
 11
185.0654237623
 21
155.7004317531
 31
0.0
  0
ARC
  5
3BC
330
1F
100
AcDbEntity
  8
0
  6
Continuous
370
     0
100
AcDbCircle
 10
228.8378283994
 20
139.3666989574
 30
0.0
 40
20.77457622945601
100
AcDbArc
 50
65.2537225494
 51
70.0644314869
  0
LINE
  5
3BD
330
1F
100
AcDbEntity
  8
0
  6
Continuous
370
     0
100
AcDbLine
 10
240.8191502745
 20
155.7004317531
 30
0.0
 11
240.8191502745
 21
157.4390982105
 31
0.0
  0
ARC
  5
3BE
330
1F
100
AcDbEntity
  8
0
  6
Continuous
370
     0
100
AcDbCircle
 10
237.980188513
 20
154.1367856773
 30
0.0
 40
3.24109440370346
100
AcDbArc
 50
28.8451359935
 51
40.537346544
  0
LINE
  5
3BF
330
1F
100
AcDbEntity
  8
0
  6
Continuous
370
     0
100
AcDbLine
 10
183.6329825873
 20
153.3175129898
 30
0.0
 11
183.9207743014
 21
155.4806814418
 31
0.0
  0
ARC
  5
3C0
330
1F
100
AcDbEntity
  8
0
  6
Continuous
370
     0
100
AcDbCircle
 10
184.1936448723
 20
157.1503725551
 30
0.0
 40
1.691841234334498
100
AcDbArc
 50
260.7184427492
 51
301.0164466015
  0
LINE
  5
3C1
330
1F
100
AcDbEntity
  8
0
  6
Continuous
370
     0
100
AcDbLine
 10
241.9637997354
 20
155.4806814418
 30
0.0
 11
242.2506452257
 21
153.3246278715
 31
0.0
  0
ARC
  5
3C2
330
1F
100
AcDbEntity
  8
0
  6
Continuous
370
     0
100
AcDbCircle
 10
241.6909291644
 20
157.1503725551
 30
0.0
 40
1.691841234334501
100
AcDbArc
 50
238.9835533985
 51
279.2815572508
  0
LINE
  5
3C3
330
1F
100
AcDbEntity
  8
0
  6
Continuous
370
     0
100
AcDbLine
 10
241.9637997354
 20
157.2193478993
 30
0.0
 11
241.9637997354
 21
155.4806814418
 31
0.0
  0
LINE
  5
3C4
330
1F
100
AcDbEntity
  8
0
  6
Continuous
370
     0
100
AcDbLine
 10
183.9207743014
 20
155.4806814418
 30
0.0
 11
183.9207743014
 21
157.2193478993
 31
0.0
  0
LINE
  5
3C5
330
1F
100
AcDbEntity
  8
0
  6
Continuous
370
     0
100
AcDbLine
 10
250.5588267649
 20
99.0474267373
 30
0.0
 11
250.5588267649
 21
99.5172746284
 31
0.0
  0
LINE
  5
3C6
330
1F
100
AcDbEntity
  8
0
  6
Continuous
370
     0
100
AcDbLine
 10
236.444625696
 20
125.7749590213
 30
0.0
 11
236.938912114
 21
125.7881118018
 31
0.0
  0
SPLINE
  5
3C7
330
1F
100
AcDbEntity
  8
0
  6
Continuous
370
     0
100
AcDbSpline
210
0.0
220
0.0
230
1.0
 70
     8
 71
     3
 72
     9
 73
     5
 74
     0
 42
0.000000001
 43
0.00000001
 40
0.0
 40
0.0
 40
0.0
 40
0.0
 40
0.9833354578077826
 40
1.0
 40
1.0
 40
1.0
 40
1.0
 10
188.9456619227822
 20
125.7881118018035
 30
0.0
 10
189.078870615724
 20
125.7845390445426
 30
0.0
 10
189.2143367904501
 20
125.7809057399235
 30
0.0
 10
189.3498056284998
 20
125.7773537207008
 30
0.0
 10
189.3520631546672
 20
125.7772945279265
 30
0.0
  0
LINE
  5
3C8
330
1F
100
AcDbEntity
  8
0
  6
Continuous
370
     0
100
AcDbLine
 10
249.5956268812
 20
98.9434255104
 30
0.0
 11
249.5956268812
 21
98.9341885354
 31
0.0
  0
LINE
  5
3C9
330
1F
100
AcDbEntity
  8
0
  6
Continuous
370
     0
100
AcDbLine
 10
249.8361875022
 20
98.7571370012
 30
0.0
 11
249.8361875022
 21
97.7912092174
 31
0.0
  0
LINE
  5
3CA
330
1F
100
AcDbEntity
  8
0
  6
Continuous
370
     0
100
AcDbLine
 10
250.4058700705
 20
97.7912092174
 30
0.0
 11
250.4058700705
 21
98.7571370012
 31
0.0
  0
LINE
  5
3CB
330
1F
100
AcDbEntity
  8
0
  6
Continuous
370
     0
100
AcDbLine
 10
249.7948293293
 20
97.6617996737
 30
0.0
 11
249.7948293293
 21
97.1788357818
 31
0.0
  0
LINE
  5
3CC
330
1F
100
AcDbEntity
  8
0
  6
Continuous
370
     0
100
AcDbLine
 10
250.3597956801
 20
97.1788357818
 30
0.0
 11
250.3597956801
 21
97.6617996737
 31
0.0
  0
LWPOLYLINE
  5
3CD
330
1F
100
AcDbEntity
  8
0
  6
Continuous
370
     0
100
AcDbPolyline
 90
       34
 70
   128
 43
0.0
 10
177.7542379404
 20
156.0323028376
 10
177.8986339177
 20
156.2283976915
 10
178.6607389058
 20
157.0228402125
 10
179.6911430264
 20
157.7967409622
 10
180.9817847515
 20
158.5440434686
 10
182.5225573684
 20
159.2588990394
 10
184.3014077003
 20
159.9357130432
 10
186.3044106121
 20
160.5691882964
 10
188.5158919449
 20
161.1543670057
 10
190.9185421372
 20
161.6866693347
 10
193.4935577864
 20
162.1619290786
 10
196.2207869346
 20
162.5764274103
 10
199.0788836683
 20
162.9269198772
 10
202.0454804132
 20
163.2106624342
 10
205.097360229
 20
163.4254365123
 10
208.2106365542
 20
163.569559624
 10
211.360944826
 20
163.6419046477
 10
214.5236292108
 20
163.6419046477
 10
217.6739374826
 20
163.569559624
 10
220.7872138078
 20
163.4254365123
 10
223.8390936235
 20
163.2106624342
 10
226.8056903685
 20
162.9269198772
 10
229.6637871022
 20
162.5764274103
 10
232.3910162503
 20
162.1619290786
 10
234.9660318995
 20
161.6866693347
 10
237.3686820919
 20
161.1543670057
 10
239.5801634247
 20
160.5691882964
 10
241.5831663365
 20
159.9357130432
 10
243.3620166684
 20
159.2588990394
 10
244.9027892853
 20
158.5440434686
 10
246.1934310103
 20
157.7967409622
 10
247.223835131
 20
157.0228402125
 10
247.9859401191
 20
156.2283976915
 10
248.0864708031
 20
156.0943594999
  0
ARC
  5
3CE
330
1F
100
AcDbEntity
  8
0
  6
Continuous
370
     0
100
AcDbCircle
 10
244.9659507596
 20
153.8904393146
 30
0.0
 40
3.143079093348836
100
AcDbArc
 50
301.4558815715
 51
52.7942397051
  0
ARC
  5
3CF
330
1F
100
AcDbEntity
  8
0
  6
Continuous
370
     0
100
AcDbCircle
 10
181.0105385947
 20
153.9276185898
 30
0.0
 40
3.223463442976329
100
AcDbArc
 50
120.027805309
 51
237.5176190445
  0
LWPOLYLINE
  5
3D0
330
1F
100
AcDbEntity
  8
0
  6
Continuous
370
     0
100
AcDbPolyline
 90
       19
 70
   128
 43
0.0
 10
212.9422870184
 20
217.1149554512
 10
209.7826983499
 20
217.0787467828
 10
206.6478376927
 20
216.9704071378
 10
203.5622398088
 20
216.7907830628
 10
200.5500529612
 20
216.5412803267
 10
197.6348521838
 20
216.22385235
 10
194.8394530172
 20
215.8409818862
 10
192.1857331599
 20
215.3956670408
 10
189.6944620366
 20
214.8913923462
 10
187.3851359541
 20
214.332104175
 10
185.275830021
 20
213.7221803688
 10
183.3830509985
 20
213.0663940811
 10
181.7216125036
 20
212.3698776214
 10
180.3045195247
 20
211.638082441
 10
179.1428585256
 20
210.8767355048
 10
178.2457266653
 20
210.0917954211
 10
177.6201423908
 20
209.2894056788
 10
177.2710007335
 20
208.4758459565
 10
177.1922853495
 20
207.8621741568
  0
LWPOLYLINE
  5
3D1
330
1F
100
AcDbEntity
  8
0
  6
Continuous
370
     0
100
AcDbPolyline
 90
       19
 70
   128
 43
0.0
 10
248.6918453778
 20
207.9081110493
 10
248.6135733033
 20
208.4758459565
 10
248.264431646
 20
209.2894056788
 10
247.6388473714
 20
210.0917954211
 10
246.7417155112
 20
210.8767355048
 10
245.5800545121
 20
211.638082441
 10
244.1629615332
 20
212.3698776214
 10
242.5015230382
 20
213.0663940811
 10
240.6087440158
 20
213.7221803688
 10
238.4994380827
 20
214.332104175
 10
236.1901120002
 20
214.8913923462
 10
233.6988408769
 20
215.3956670408
 10
231.0451210196
 20
215.8409818862
 10
228.2497218529
 20
216.22385235
 10
225.3345210756
 20
216.5412803267
 10
222.3223342279
 20
216.7907830628
 10
219.236736344
 20
216.9704071378
 10
216.1018756869
 20
217.0787467828
 10
212.9422870184
 20
217.1149554512
  0
ARC
  5
3D2
330
1F
100
AcDbEntity
  8
0
  6
Continuous
370
     0
100
AcDbCircle
 10
180.9567629459
 20
153.8985777164
 30
0.0
 40
3.161653711907153
100
AcDbArc
 50
125.3964681397
 51
238.3147184097
  0
ARC
  5
3D3
330
1F
100
AcDbEntity
  8
0
  6
Continuous
370
     0
100
AcDbCircle
 10
244.8605119469
 20
153.9301541637
 30
0.0
 40
3.221842873699739
100
AcDbArc
 50
302.7264707646
 51
60.22790779939999
  0
ARC
  5
3D4
330
1F
100
AcDbEntity
  8
0
  6
Continuous
370
     0
100
AcDbCircle
 10
244.3432741742
 20
154.2921535935
 30
0.0
 40
3.432033953905649
100
AcDbArc
 50
304.0989805029
 51
1.4765478645
  0
ARC
  5
3D5
330
1F
100
AcDbEntity
  8
0
  6
Continuous
370
     0
100
AcDbCircle
 10
181.5691496133
 20
154.310989672
 30
0.0
 40
3.465405414142865
100
AcDbArc
 50
179.8293079273
 51
236.0299171474
  0
LINE
  5
3D6
330
1F
100
AcDbEntity
  8
0
  6
Continuous
370
     0
100
AcDbLine
 10
187.5223439837
 20
160.0425140428
 30
0.0
 11
188.0897690261
 21
160.1417578776
 31
0.0
  0
LINE
  5
3D7
330
1F
100
AcDbEntity
  8
0
  6
Continuous
370
     0
100
AcDbLine
 10
188.4026561583
 20
160.0226864708
 30
0.0
 11
188.4050794596
 21
160.0963536947
 31
0.0
  0
LINE
  5
3D8
330
1F
100
AcDbEntity
  8
0
  6
Continuous
370
     0
100
AcDbLine
 10
185.9255653525
 20
159.7571249067
 30
0.0
 11
185.9112919028
 21
158.5063004795
 31
0.0
  0
LINE
  5
3D9
330
1F
100
AcDbEntity
  8
0
  6
Continuous
370
     0
100
AcDbLine
 10
237.7360087539
 20
159.9750249423
 30
0.0
 11
237.7378695364
 21
159.9030862134
 31
0.0
  0
LINE
  5
3DA
330
1F
100
AcDbEntity
  8
0
  6
Continuous
370
     0
100
AcDbLine
 10
240.1190508808
 20
158.3748879804
 30
0.0
 11
240.1089106406
 21
159.6213436053
 31
0.0
  0
LINE
  5
3DB
330
1F
100
AcDbEntity
  8
0
  6
Continuous
370
     0
100
AcDbLine
 10
240.5728880967
 20
159.576346481
 30
0.0
 11
240.5831624473
 21
158.3325629405
 31
0.0
  0
LINE
  5
3DC
330
1F
100
AcDbEntity
  8
0
  6
Continuous
370
     0
100
AcDbLine
 10
185.6762186343
 20
158.4519802455
 30
0.0
 11
185.6903151328
 21
159.7002203283
 31
0.0
  0
ARC
  5
3DD
330
1F
100
AcDbEntity
  8
0
  6
Continuous
370
     0
100
AcDbCircle
 10
240.4001891661
 20
160.2101980983
 30
0.0
 40
0.6569572233926491
100
AcDbArc
 50
243.6805701325
 51
285.2408406578
  0
LINE
  5
3DE
330
1F
100
AcDbEntity
  8
0
  6
Continuous
370
     0
100
AcDbLine
 10
183.7898918147
 20
142.8892350188
 30
0.0
 11
180.5369441117
 21
142.0473102005
 31
0.0
  0
LINE
  5
3DF
330
1F
100
AcDbEntity
  8
0
  6
Continuous
370
     0
100
AcDbLine
 10
184.8818470443
 20
144.1392194633
 30
0.0
 11
185.0058358813
 21
144.454395986
 31
0.0
  0
LINE
  5
3E0
330
1F
100
AcDbEntity
  8
0
  6
Continuous
370
     0
100
AcDbLine
 10
150.6864946986
 20
176.2023321808
 30
0.0
 11
150.5625058616
 21
175.8871545169
 31
0.0
  0
LINE
  5
3E1
330
1F
100
AcDbEntity
  8
0
  6
Continuous
370
     0
100
AcDbLine
 10
146.5345543528
 20
177.1018910373
 30
0.0
 11
146.6585469151
 21
177.4170668853
 31
0.0
  0
LINE
  5
3E2
330
1F
100
AcDbEntity
  8
0
  6
Continuous
370
     0
100
AcDbLine
 10
143.830120256
 20
176.6850161982
 30
0.0
 11
143.7061276937
 21
176.3698403503
 31
0.0
  0
LINE
  5
3E3
330
1F
100
AcDbEntity
  8
0
  6
Continuous
370
     0
100
AcDbLine
 10
158.3450917805
 20
163.0788529301
 30
0.0
 11
158.4690843428
 21
163.3940295174
 31
0.0
  0
LINE
  5
3E4
330
1F
100
AcDbEntity
  8
0
  6
Continuous
370
     0
100
AcDbLine
 10
170.166201582
 20
152.1434527245
 30
0.0
 11
170.290190419
 21
152.4586283475
 31
0.0
  0
LINE
  5
3E5
330
1F
100
AcDbEntity
  8
0
  6
Continuous
370
     0
100
AcDbLine
 10
186.5690589602
 20
135.9747517136
 30
0.0
 11
183.3161112572
 21
135.1328268954
 31
0.0
  0
LINE
  5
3E6
330
1F
100
AcDbEntity
  8
0
  6
Continuous
370
     0
100
AcDbLine
 10
188.7450531776
 20
135.1513397805
 30
0.0
 11
188.4622533525
 21
135.2312747955
 31
0.0
  0
LINE
  5
3E7
330
1F
100
AcDbEntity
  8
0
  6
Continuous
370
     0
100
AcDbLine
 10
186.3397785182
 20
136.6147096968
 30
0.0
 11
186.623980915
 21
136.534377003
 31
0.0
  0
LINE
  5
3E8
330
1F
100
AcDbEntity
  8
0
  6
Continuous
370
     0
100
AcDbLine
 10
184.144891491
 20
142.7022784416
 30
0.0
 11
184.0202861185
 21
142.3855391956
 31
0.0
  0
LINE
  5
3E9
330
1F
100
AcDbEntity
  8
0
  6
Continuous
370
     0
100
AcDbLine
 10
217.3422869945
 20
117.6869003786
 30
0.0
 11
208.5422870422
 21
117.6869003786
 31
0.0
  0
LINE
  5
3EA
330
1F
100
AcDbEntity
  8
0
  6
Continuous
370
     0
100
AcDbLine
 10
217.3422869945
 20
120.4427416956
 30
0.0
 11
208.5422870422
 21
120.4427416956
 31
0.0
  0
LINE
  5
3EB
330
1F
100
AcDbEntity
  8
0
  6
Continuous
370
     0
100
AcDbLine
 10
217.3422869945
 20
125.0071446635
 30
0.0
 11
208.5422870422
 21
125.0071446635
 31
0.0
  0
LINE
  5
3EC
330
1F
100
AcDbEntity
  8
0
  6
Continuous
370
     0
100
AcDbLine
 10
217.3422869945
 20
126.319878873
 30
0.0
 11
208.5422870422
 21
126.319878873
 31
0.0
  0
LINE
  5
3ED
330
1F
100
AcDbEntity
  8
0
  6
Continuous
370
     0
100
AcDbLine
 10
209.5422869733
 20
130.7347670376
 30
0.0
 11
209.5422869733
 21
130.5849259846
 31
0.0
  0
LINE
  5
3EE
330
1F
100
AcDbEntity
  8
0
  6
Continuous
370
     0
100
AcDbLine
 10
216.3422870635
 20
130.5849259846
 30
0.0
 11
216.3422870635
 21
130.7347670376
 31
0.0
  0
MTEXT
  5
3F0
330
1F
100
AcDbEntity
  8
寸法線
 62
     7
100
AcDbMText
 10
164.1592428627
 20
73.3877541016
 30
0.0
 40
7.9375
 41
0.0
 71
     1
 72
     1
  1
{MMP-080F/SWF･SMF}
  7
SLDTEXTSTYLE0
 73
     1
 44
1.0
1001
ACAD
1000
ACAD_MTEXT_DEFINED_HEIGHT_BEGIN
1070
    46
1040
7.9375
1000
ACAD_MTEXT_DEFINED_HEIGHT_END
  0
ENDSEC
  0
SECTION
  2
OBJECTS
  0
DICTIONARY
  5
C
330
0
100
AcDbDictionary
281
     1
  3
ACAD_DETAILVIEWSTYLE
350
438
  3
ACAD_GROUP
350
D
  3
ACAD_IMAGE_VARS
350
412
  3
ACAD_LAYOUT
350
1A
  3
ACAD_MLINESTYLE
350
17
  3
ACAD_PLOTSETTINGS
350
19
  3
ACAD_PLOTSTYLENAME
350
E
  3
ACAD_SCALELIST
350
47
  3
ACAD_SECTIONVIEWSTYLE
350
439
  3
AcDbVariableDictionary
350
434
  3
APPDATA
350
410
  3
DWGPROPS
350
43D
  0
DICTIONARY
  5
438
102
{ACAD_REACTORS
330
C
102
}
330
C
100
AcDbDictionary
281
     1
  0
DICTIONARY
  5
D
102
{ACAD_REACTORS
330
C
102
}
330
C
100
AcDbDictionary
281
     1
  0
RASTERVARIABLES
  5
412
102
{ACAD_REACTORS
330
C
102
}
330
C
100
AcDbRasterVariables
 90
        0
 70
     1
 71
     1
 72
     1
  0
DICTIONARY
  5
1A
102
{ACAD_REACTORS
330
C
102
}
330
C
100
AcDbDictionary
281
     1
  3
Layout1
350
1E
  3
Layout2
350
26
  3
Model
350
22
  0
DICTIONARY
  5
17
102
{ACAD_REACTORS
330
C
102
}
330
C
100
AcDbDictionary
281
     1
  3
Standard
350
18
  0
DICTIONARY
  5
19
102
{ACAD_REACTORS
330
C
102
}
330
C
100
AcDbDictionary
281
     1
  0
ACDBDICTIONARYWDFLT
  5
E
102
{ACAD_REACTORS
330
C
102
}
330
C
100
AcDbDictionary
281
     1
  3
Normal
350
F
100
AcDbDictionaryWithDefault
340
F
  0
DICTIONARY
  5
47
102
{ACAD_REACTORS
330
C
102
}
330
C
100
AcDbDictionary
281
     1
  3
A0
350
48
  3
A1
350
49
  3
A2
350
4A
  3
A3
350
4B
  3
A4
350
4C
  3
A5
350
4D
  3
A6
350
4E
  3
A7
350
4F
  3
A8
350
50
  3
A9
350
51
  3
B0
350
52
  3
B1
350
53
  3
B2
350
54
  3
B3
350
55
  3
B4
350
56
  3
B5
350
57
  3
B6
350
58
  3
B7
350
59
  3
B8
350
5A
  3
B9
350
5B
  3
C0
350
5C
  3
C1
350
5D
  3
C2
350
5E
  3
C3
350
5F
  3
C4
350
60
  3
C5
350
61
  3
C6
350
62
  3
C7
350
63
  3
C8
350
64
  3
C9
350
65
  3
D0
350
66
  3
D1
350
67
  3
D2
350
68
  0
DICTIONARY
  5
439
102
{ACAD_REACTORS
330
C
102
}
330
C
100
AcDbDictionary
281
     1
  0
DICTIONARY
  5
434
102
{ACAD_REACTORS
330
C
102
}
330
C
100
AcDbDictionary
281
     1
  0
DICTIONARY
  5
410
102
{ACAD_REACTORS
330
C
102
}
330
C
100
AcDbDictionary
281
     1
  0
XRECORD
  5
43D
102
{ACAD_REACTORS
330
C
102
}
330
C
100
AcDbXrecord
280
     1
  1
DWGPROPS COOKIE
  2

  3

  4

  6

  7

  8
SPAX
  9

300
=
301
=
302
=
303
=
304
=
305
=
306
=
307
=
308
=
309
=
 40
0.0
 41
2457385.439885891
 42
2458074.170210116
  1

 90
        0
  0
LAYOUT
  5
1E
102
{ACAD_REACTORS
330
1A
102
}
330
1A
100
AcDbPlotSettings
  1

  2
none_device
  4

  6

 40
0.0
 41
0.0
 42
0.0
 43
0.0
 44
0.0
 45
0.0
 46
0.0
 47
0.0
 48
0.0
 49
0.0
140
0.0
141
0.0
142
1.0
143
1.0
 70
   688
 72
     1
 73
     0
 74
     5
  7

 75
    16
147
1.0
148
0.0
149
0.0
100
AcDbLayout
  1
Layout1
 70
     1
 71
     1
 10
0.0
 20
0.0
 11
420.0
 21
297.0
 12
0.0
 22
0.0
 32
0.0
 14
1.000000000000000E+20
 24
1.000000000000000E+20
 34
1.000000000000000E+20
 15
-1.000000000000000E+20
 25
-1.000000000000000E+20
 35
-1.000000000000000E+20
146
0.0
 13
0.0
 23
0.0
 33
0.0
 16
1.0
 26
0.0
 36
0.0
 17
0.0
 27
1.0
 37
0.0
 76
     0
330
1B
  0
LAYOUT
  5
26
102
{ACAD_REACTORS
330
1A
102
}
330
1A
100
AcDbPlotSettings
  1

  2
none_device
  4

  6

 40
0.0
 41
0.0
 42
0.0
 43
0.0
 44
0.0
 45
0.0
 46
0.0
 47
0.0
 48
0.0
 49
0.0
140
0.0
141
0.0
142
1.0
143
1.0
 70
   688
 72
     1
 73
     0
 74
     5
  7

 75
    16
147
1.0
148
0.0
149
0.0
100
AcDbLayout
  1
Layout2
 70
     1
 71
     2
 10
0.0
 20
0.0
 11
0.0
 21
0.0
 12
0.0
 22
0.0
 32
0.0
 14
0.0
 24
0.0
 34
0.0
 15
0.0
 25
0.0
 35
0.0
146
0.0
 13
0.0
 23
0.0
 33
0.0
 16
1.0
 26
0.0
 36
0.0
 17
0.0
 27
1.0
 37
0.0
 76
     0
330
23
  0
LAYOUT
  5
22
102
{ACAD_REACTORS
330
1A
102
}
330
1A
100
AcDbPlotSettings
  1

  2
none_device
  4
Letter_(8.50_x_11.00_Inches)
  6

 40
6.35
 41
6.35
 42
6.35000508
 43
6.35000508
 44
215.9
 45
279.4
 46
0.0
 47
0.0
 48
0.0
 49
0.0
140
0.0
141
0.0
142
1.0
143
1.0
 70
  1712
 72
     1
 73
     0
 74
     0
  7

 75
     0
147
1.0
148
0.0
149
0.0
100
AcDbLayout
  1
Model
 70
     1
 71
     0
 10
0.0
 20
0.0
 11
431.8
 21
279.4
 12
0.0
 22
0.0
 32
0.0
 14
142.7645680214
 24
65.4502541016
 34
0.0
 15
258.9422871078
 25
217.6674296901458
 35
0.0
146
0.0
 13
0.0
 23
0.0
 33
0.0
 16
1.0
 26
0.0
 36
0.0
 17
0.0
 27
1.0
 37
0.0
 76
     0
330
1F
331
29
  0
MLINESTYLE
  5
18
102
{ACAD_REACTORS
330
17
102
}
330
17
100
AcDbMlineStyle
  2
Standard
 70
     0
  3

 62
   256
 51
90.0
 52
90.0
 71
     2
 49
0.5
 62
   256
  6
BYLAYER
 49
-0.5
 62
   256
  6
BYLAYER
  0
ACDBPLACEHOLDER
  5
F
102
{ACAD_REACTORS
330
E
102
}
330
E
  0
SCALE
  5
48
102
{ACAD_REACTORS
330
47
102
}
330
47
100
AcDbScale
 70
     0
300
1:1
140
1.0
141
1.0
290
     1
  0
SCALE
  5
49
102
{ACAD_REACTORS
330
47
102
}
330
47
100
AcDbScale
 70
     0
300
1:2
140
1.0
141
2.0
290
     0
  0
SCALE
  5
4A
102
{ACAD_REACTORS
330
47
102
}
330
47
100
AcDbScale
 70
     0
300
1:4
140
1.0
141
4.0
290
     0
  0
SCALE
  5
4B
102
{ACAD_REACTORS
330
47
102
}
330
47
100
AcDbScale
 70
     0
300
1:5
140
1.0
141
5.0
290
     0
  0
SCALE
  5
4C
102
{ACAD_REACTORS
330
47
102
}
330
47
100
AcDbScale
 70
     0
300
1:8
140
1.0
141
8.0
290
     0
  0
SCALE
  5
4D
102
{ACAD_REACTORS
330
47
102
}
330
47
100
AcDbScale
 70
     0
300
1:10
140
1.0
141
10.0
290
     0
  0
SCALE
  5
4E
102
{ACAD_REACTORS
330
47
102
}
330
47
100
AcDbScale
 70
     0
300
1:16
140
1.0
141
16.0
290
     0
  0
SCALE
  5
4F
102
{ACAD_REACTORS
330
47
102
}
330
47
100
AcDbScale
 70
     0
300
1:20
140
1.0
141
20.0
290
     0
  0
SCALE
  5
50
102
{ACAD_REACTORS
330
47
102
}
330
47
100
AcDbScale
 70
     0
300
1:30
140
1.0
141
30.0
290
     0
  0
SCALE
  5
51
102
{ACAD_REACTORS
330
47
102
}
330
47
100
AcDbScale
 70
     0
300
1:40
140
1.0
141
40.0
290
     0
  0
SCALE
  5
52
102
{ACAD_REACTORS
330
47
102
}
330
47
100
AcDbScale
 70
     0
300
1:50
140
1.0
141
50.0
290
     0
  0
SCALE
  5
53
102
{ACAD_REACTORS
330
47
102
}
330
47
100
AcDbScale
 70
     0
300
1:100
140
1.0
141
100.0
290
     0
  0
SCALE
  5
54
102
{ACAD_REACTORS
330
47
102
}
330
47
100
AcDbScale
 70
     0
300
2:1
140
2.0
141
1.0
290
     0
  0
SCALE
  5
55
102
{ACAD_REACTORS
330
47
102
}
330
47
100
AcDbScale
 70
     0
300
4:1
140
4.0
141
1.0
290
     0
  0
SCALE
  5
56
102
{ACAD_REACTORS
330
47
102
}
330
47
100
AcDbScale
 70
     0
300
8:1
140
8.0
141
1.0
290
     0
  0
SCALE
  5
57
102
{ACAD_REACTORS
330
47
102
}
330
47
100
AcDbScale
 70
     0
300
10:1
140
10.0
141
1.0
290
     0
  0
SCALE
  5
58
102
{ACAD_REACTORS
330
47
102
}
330
47
100
AcDbScale
 70
     0
300
100:1
140
100.0
141
1.0
290
     0
  0
SCALE
  5
59
102
{ACAD_REACTORS
330
47
102
}
330
47
100
AcDbScale
 70
     0
300
1/128" = 1'-0"
140
0.0078125
141
12.0
290
     0
  0
SCALE
  5
5A
102
{ACAD_REACTORS
330
47
102
}
330
47
100
AcDbScale
 70
     0
300
1/64" = 1'-0"
140
0.015625
141
12.0
290
     0
  0
SCALE
  5
5B
102
{ACAD_REACTORS
330
47
102
}
330
47
100
AcDbScale
 70
     0
300
1/32" = 1'-0"
140
0.03125
141
12.0
290
     0
  0
SCALE
  5
5C
102
{ACAD_REACTORS
330
47
102
}
330
47
100
AcDbScale
 70
     0
300
1/16" = 1'-0"
140
0.0625
141
12.0
290
     0
  0
SCALE
  5
5D
102
{ACAD_REACTORS
330
47
102
}
330
47
100
AcDbScale
 70
     0
300
3/32" = 1'-0"
140
0.09375
141
12.0
290
     0
  0
SCALE
  5
5E
102
{ACAD_REACTORS
330
47
102
}
330
47
100
AcDbScale
 70
     0
300
1/8" = 1'-0"
140
0.125
141
12.0
290
     0
  0
SCALE
  5
5F
102
{ACAD_REACTORS
330
47
102
}
330
47
100
AcDbScale
 70
     0
300
3/16" = 1'-0"
140
0.1875
141
12.0
290
     0
  0
SCALE
  5
60
102
{ACAD_REACTORS
330
47
102
}
330
47
100
AcDbScale
 70
     0
300
1/4" = 1'-0"
140
0.25
141
12.0
290
     0
  0
SCALE
  5
61
102
{ACAD_REACTORS
330
47
102
}
330
47
100
AcDbScale
 70
     0
300
3/8" = 1'-0"
140
0.375
141
12.0
290
     0
  0
SCALE
  5
62
102
{ACAD_REACTORS
330
47
102
}
330
47
100
AcDbScale
 70
     0
300
1/2" = 1'-0"
140
0.5
141
12.0
290
     0
  0
SCALE
  5
63
102
{ACAD_REACTORS
330
47
102
}
330
47
100
AcDbScale
 70
     0
300
3/4" = 1'-0"
140
0.75
141
12.0
290
     0
  0
SCALE
  5
64
102
{ACAD_REACTORS
330
47
102
}
330
47
100
AcDbScale
 70
     0
300
1" = 1'-0"
140
1.0
141
12.0
290
     0
  0
SCALE
  5
65
102
{ACAD_REACTORS
330
47
102
}
330
47
100
AcDbScale
 70
     0
300
1-1/2" = 1'-0"
140
1.5
141
12.0
290
     0
  0
SCALE
  5
66
102
{ACAD_REACTORS
330
47
102
}
330
47
100
AcDbScale
 70
     0
300
3" = 1'-0"
140
3.0
141
12.0
290
     0
  0
SCALE
  5
67
102
{ACAD_REACTORS
330
47
102
}
330
47
100
AcDbScale
 70
     0
300
6" = 1'-0"
140
6.0
141
12.0
290
     0
  0
SCALE
  5
68
102
{ACAD_REACTORS
330
47
102
}
330
47
100
AcDbScale
 70
     0
300
1'-0" = 1'-0"
140
12.0
141
12.0
290
     0
  0
ENDSEC
  0
EOF
